Home » A » Andrew Jackson Jihad »

Andrew Jackson Jihad - Lady Liberty Tabs

Artists:  A B C D E F G H I J K L M N O P Q R S T U V W X Y Z # 

Lady Liberty Tabs

(ver. 1) Click to play this song!
Andrew Jackson Jihad
Tuning: Standardized

e|-------------------------------------------------------------------------------|
B|-------------------------------------------------------------------------------|
G|-4-4-5-7-5-4---12-11-9--7-9-7-5-4-2--0-2/4-2--5-4-2-0-2-4-7-12---0-2/4-2---0---|
D|-------------------------------------------------------------------------4-----|
A|-------------------------------------------------------------------------------|
E|-------------------------------------------------------------------------------|

e|-7-7-8-10-8-7---15-14-12--10-12-10--8-7-5----5/7-5--8-7-5--5-7-10-15-----5/7-5------|
B|-------------------------------------------8--------------8------------8-------7-8--|
G|------------------------------------------------------------------------------------|
D|------------------------------------------------------------------------------------|
A|------------------------------------------------------------------------------------|
E|------------------------------------------------------------------------------------|            
Submit corrections

↑ Back to top | Tablatures and chords for acoustic guitar and electric guitar, ukulele, drums are parodies/interpretations of the original songs. You may use it for private study, scholarship, research or language learning purposes only