Home » A » Andrew Jackson Jihad »

Andrew Jackson Jihad - Fucc The Devil Tabs

Artists:  A B C D E F G H I J K L M N O P Q R S T U V W X Y Z # 

Fucc The Devil Tabs

(ver. 1) Click to play this song!
Andrew Jackson Jihad
Tuning: Standard

e|-----------------------------------------------------------------|
B|-----------------------------------------------------------------|
G|--------------------------------------------7-9-11-12---12-14----|
D|-------------------------------------7-9-11----------------------|
A|-9--9-9-9-7-5---5-6-7----------7-9-10----------------------------|
E|-7--7-7-7-5-3---3-4-5----7-9-10----------------------------------|

e|--------------------------------------------------------------12--15-------------|
B|-12-12-13-15-13/15\13-13-12--13-15-13-12-15-12-10-13-10--12/15--15---------------|
G|---------------------------------------------------------------------------------|
D|---------------------------------------------------------------------------------|
A|---------------------------------------------------------------------------------|
E|---------------------------------------------------------------------------------|
            
Submit corrections

↑ Back to top | Tablatures and chords for acoustic guitar and electric guitar, ukulele, drums are parodies/interpretations of the original songs. You may use it for private study, scholarship, research or language learning purposes only