» » »

Andrea Bocelli - Romanza Tabs

Artists:  A B C D E F G H I J K L M N O P Q R S T U V W X Y Z # 

Romanza Tabs

(ver. 1) Click to play this song!
Andrea Bocelli
 Rating:
4.3/5 (19 votes)

 Romanza  lessons Tabs too difficult? Try these video lessons and learn fast
 
                Chords:D7      Bm7     Harmonics:On the fret board in the middle of 
e |-----2-------2------|---------(12)-------|  the 12 and 13 feet don't
B |-----1-------0------|---------(12)-------|   Press it down lift it 
G |-----2-------2------|---------(12)-------|   Over it and only those
D |-----0-------1------|--------------------|       Notes 
A |-----x-------2------|--------------------|
E |-----x-------x------|--------------------|



e |-7---7---7----|-7---5---3----|-3---2---0---|
B |--0---0---0---|--0---0---0---|--0---0---0--|
G |---0---0---0--|---0---0---0--|---0---0---0-|
D |--------------|--------------|-------------|
A |--------------|--------------|-------------|
E |-0------------|-0------------|-0-----------|

e |-0---3---7----|-12---12---12----|-12---10---8-----|
B |--0---0---0---|---0----0----0---|---0----0---0----|
G |---0---0---0--|----0----0----0--|----0----0---0---|
D |--------------|-----------------|-----------------|
A |--------------|-----------------|-----------------|
E |-0------------|-0---------------|-0---------------|
                                 D7 
e |-7---5---3----|-3---2---0----|-2---2---2-----|
B |--0---0---0---|--0---0---0---|--1---1---1----|
G |---0---0---0--|---0---0---0--|---2---2---2---|
D |--------------|--------------|---------------|
A |--------------|--------------|---------------|
E |-0------------|-0------------|-0-------------|
   Bm7                                                  Harmonics 
e |-2---3---2----|-0---0---0----|-0---2---3----|-0-------(12)---|
B |--0---0---0---|--0---0---0---|--------------|---------(12)---|
G |---2---2---2--|---0---0---0--|--------------|---------(12)---|
D |--------------|-2------------|--------------|----------------|
A |-2------------|-----2--------|--------------|----------------|
E |--------------|---------3----|-0------------|-0--------------|
            
Submit corrections


        Romanza  lessons Hard to play? Try these video lessons and learn fast Romanza  lessons
        
↑ Back to top | Tablatures and chords for acoustic guitar and electric guitar, ukulele, drums are parodies/interpretations of the original songs. You may use it for private study, scholarship, research or language learning purposes only