» » »

Anathema - Silent Enigma Instrumental Tabs

Artists:  A B C D E F G H I J K L M N O P Q R S T U V W X Y Z # 

Silent Enigma Instrumental Tabs

(ver. 1) Click to play this song!
Anathema
 Rating:
4/5 (4 votes)
                Standard Tuning 
h=Hammer on
p=pull off


------1---0h1---------1----0h1----------1-0------  \
--------3---------------3------------------------    \
----2---------------2---------------------------      2x
--0---------------0------------------2------------   / 
----------------------------------3-------------    /
-----------------------------------------------    /

------0----------0-----------1--0--1--3--1-0h1p0--   
--------3----------3------------------------------
--------------------------------------------------
----0---------0-----------2-----------------------     2x
--1---------1-----------3-------------------------
--------------------------------------------------

this is my first actual tab. it's an awesome song but this is only the first part of the song. i'll do the rest as time and my skill level progresses.
            
Submit corrections

↑ Back to top | Tablatures and chords for acoustic guitar and electric guitar, ukulele, drums are parodies/interpretations of the original songs. You may use it for private study, scholarship, research or language learning purposes only