» » »

Anathema - Lovelorn Rhapsody Bass

Artists:  A B C D E F G H I J K L M N O P Q R S T U V W X Y Z # 

Lovelorn Rhapsody Bass

(ver. 1) Click to play this song!
Anathema
 Rating:
4/5 (4 votes)


 Lovelorn Rhapsody lessons Tabs too difficult? Try these video lessons and learn fast
 
                ================================================================================
                                A N A T H E M A

                                       -

                        L O V E L O R N   R H A P S O D Y
================================================================================


                                    SERENADES
                         (c)  Peaceville Records (1993)


                         Standard Tuning [5-String Bass]
                                    B E A D G

                                  Tempo = 86 BPM
                              Time Signature = 4/4



                          -----------------------------

                                 PADDY MCMULLAN

                                   Version 1.0
                                 22nd April 2009
                             -----------------------

                             Tablature Symbols Used:


 p         -  Pull-Off
 h         -  Hammer-On
 (/)       -  Legato Slide (Blank space indicates length of slide)
 \         -  Slide Down to/Down From (Blank space indicates length of slide)
 /         -  Slide Up To/Up From (Blank space indicates length of slide)
 ( )       -  Ghost Note/Tied Note/Implied Note
 REST      -  Rest and sustain rest for duration of blank space
 |___[1]   -  Ending 1/2/3 etc.



================================================================================
Rest for 2 bars
================================================================================

================================================================================
Intro : Play 8 times
================================================================================


||--R-      ---------------|/|----------R-----R--------|
||--E-      ---------------|/|----------E-----E--------|
||--S-      ---------------|/|----------S-----S--------|
||--T-      ---------------|/|----------T-----T--------|
||-----------2-2-2---0--2--|/|--1----1-----1-----1-----|

|_______________________[1 - 7]
|-----R---------------------| |
|-----E---------------------|*|
|-----S---------------------| |
|-----T---------------------|*|
|--1-----1----2-2-2---0--2--| |


|____________________[8]
|--------R-          -||
|--------E-          -||
|--------S-          -||
|--------T-          -||
|--1--1---------------||



The first bar is played once only



================================================================================
Section 1: Play twice
================================================================================


||--------------------|---------------------|-------------------|
||--------------------|---------------------|-------------------|
||--------------------|---------------------|-------------------|
||--------------------|---------------------|--8----------------|
||--0------------0----|--0--------0--0------|-------------------|


|---------------------|-------------------|----------------------|
|---------------------|-------------------|----------------------|
|---------------------|-------------------|----------------------|
|--8-----------  \----|--0----------------|--0------0--3--3------|
|---------------------|-------------------|----------------------|


|--------------------|-----R-             -| |
|--------------------|-----E-             -|*|
|--------------------|-----S-             -| |
|--------------------|-----T-             -|*|
|--1--------1--------|--1------------------| |



================================================================================
Section 2: Play twice
================================================================================


||---------------------|---------------------|---------------------|
||---------------------|---------------------|---------------------|
||---------------------|---------------------|---------------------|
||---------------------|--5---------------5--|--6---------------6--|
||--3---------------3--|---------------------|---------------------|


|--------------------|---------------------|---------------------|
|--------------------|---------------------|---------------------|
|--------------------|---------------------|---------------------|
|-----------5--------|--3---------------3--|--4---------------5--|
|--0-----------------|---------------------|---------------------|


|----------------------|----------------------|---------------------|
|----------------------|----------------------|---------------------|
|----------------------|----------------------|---------------------|
|--5---------------5 \ | -2--------2--0--2----|--3---------------3--|
|----------------------|----------------------|---------------------|

|____________________________________________________________[1]
|--------------------|-------------------|-------------------| |
|--------------------|-------------------|-------------------|*|
|--------------------|-------------------|-------------------| |
|--0------------0----|-------------------|--5----------------|*|
|--------------------|--3----------------|-------------------| |


|__________________[2]
|-------------------||
|-------------------||
|-------------------||
|--0----------------||
|-------------------||



================================================================================
Play Section 1 twice
================================================================================

================================================================================
Play 10 bars of Section 2, then play the following: [ Tempo = 116 BPM ]
================================================================================


||-------------------|-------------------|-------------------|
||-------------------|-------------------|-------------------|
||-------------------|-------------------|-------------------|
||-------------------|-------------------|-------------------|
||--0----------------|-(0)---------------|-(0)---------------|


|-------------------------||
|-------------------------||
|-------------------------||
|-------------------------||
|-(0)-------2-2-2---0--2--||



================================================================================
Play the Intro 4 times
================================================================================

================================================================================
Section 3: Play twice
================================================================================


||----------------------------|--------------------------|
||----------------------------|-----2--3-----------------|
||----------------------------|-----------3--------------|
||----------------------------|--------------------------|
||--0--6--3--5-- \--0--0-0-0--|--0-------------0--0-0-0--|


|----------------------------|-------------------------| |
|-----4--5-------------------|-----2--3-------5--------|*|
|-----------5-- \------------|-----------3-------3--2--| |
|----------------------------|-------------------------|*|
|--0---------------0--0-0-0--|--0----------------------| |



================================================================================
Play the Intro 4 times
================================================================================

================================================================================
Play Section 3 four times
================================================================================

================================================================================
Section 4: Play 4 times
================================================================================


||----------------------------|--------------------------| |
||----------------------------|-----------7--------------|*|
||----------------------------|--------5-----------7--5--| |
||----------------------------|-----3-----------5--------|*|
||--0--6--3--5-- \--0--0-0-0--|--0-----------3-----------| |



================================================================================
Outro: Play 4 times
================================================================================


||----------------------------|----------------------------| |
||----------------------------|----------------------------|*|
||----------------------------|----------------------------| | x 4
||----------------------------|----------------------------|*|
||--0--6--3--5-- \--0--0-0-0--|--0-----0-0-0--0---0-0-3----| |


|-----R-            -||
|-----E-            -||
|-----S-            -||
|-----T-            -||
|--0-----------------||



================================================================================
End
================================================================================


Tab summary:        Intro x 8
                    Section 1 x 2
                    Section 2 x 2
                    Intro x 4
                    Section 3 x 2
                    Intro x 4
                    Section 3 x 4
                    Section 4 x 4
                    Outro x 4

                    END
            
Submit corrections



        Lovelorn Rhapsody lessons Hard to play? Try these video lessons and learn fast Lovelorn Rhapsody lessons
        
↑ Back to top | Tablatures and chords for acoustic guitar and electric guitar, ukulele, drums are parodies/interpretations of the original songs. You may use it for private study, scholarship, research or language learning purposes only