» » »

Anarbor - The Brightest Green Tabs

Artists:  A B C D E F G H I J K L M N O P Q R S T U V W X Y Z # 

The Brightest Green Tabs

(ver. 1) Click to play this song!
Anarbor
 Rating:
4.3/5 (20 votes)

 The Brightest Green  lessons Tabs too difficult? Try these video lessons and learn fast
 
                Intro:
e|-----------|
b|-----------|
g|-----------|
d|-----2-----| x4
a|-2h4---4-4-|
e|-----------|

Verse:
e|-------------------------------------------------|
b|-------------------------------------------------|
g|-------------------------------------------------|
d|-----2-----------2-------------------------------|
a|-2h4---4-4---2h4---4-4-------2-----------2-------|
e|-------------------------2h4---4-4---2h4---4-4-3-|

e|-------------------------------------------------|
b|-------------------------------------------------|
g|-------------------------------------------------|
d|-----------------------------1-----------1-------|
a|-----0-----------0-------0h2---2-2---0h2---2-x-3-|
e|-0h2---2-2---0h2---2-2---------------------------|

e|-------------------------------------------------|
b|-------------------------------------------------|
g|-------------------------------------------------|
d|-----2-----------2-------------------------------|
a|-2h4---4-4---2h4---4-4-------2-----------2-------|
e|-------------------------2h4---4-4---2h4---4-4-3-|

e|-------------------------------------------------|
b|-------------------------------------------------|
g|-------------------------4-4-4-4-4-4-5-------5-6\|
d|-------------------------4-4-4-4-4-4-5-------5-6\|
a|-----0-----------0-------2-2-2-2-2-2-3-------3-4\|
e|-0h2---2-2---0h2---2-2---------------------------|

Prechorus:
no guitar

Chorus:
e|-------------------------------------------------|-- |
b|-------------------------------------------------|-- |
g|-6-----6-----6-----6---6-------------------------|-- |
d|-6-----6-----6-----6---6-2-----2-----2-----2---2-|-- |
a|-4-----4-----4-----4---4-2-----2-----2-----2---2-|-- |
e|-------------------------0-----0-----0-----0---0-|-- |
                                                    |x2
e|-------------------------------------------------|-- |
b|-------------------------------------------------|-- |
g|-4-----4-----4-----------------------------------|-- |
d|-4-----4-----4-----x---4-----x-4---4-4---4-4---4-|-- |
a|-2-----2-----2-----x---4-----x-4---4-4---4-4---4-|-- |
e|-------------------x---2-----x-2---2-2---2-2---2---- |

e|-------------------------------------------------|
b|-------------------------------------------------|
g|-2-----2-----x-----------------------------------|
d|-2-----2-----x-----2-----------2-----2-----2---2-|
a|-0-----0-----x-----2-----------2-----2-----2---2-|
e|-------------------0-----------0-----0-----0---0-|

e|-------------------------------------------------|
b|-------------------------------------------------|
g|-4-----4-----x-----------------------------------|
d|-4-----4-----x-----4-----------4-----4-----4---4-|
a|-2-----2-----x-----4-----------4-----4-----4---4-|
e|-------------------2-----------2-----2-----2---2-|

e|-------------------------------------------------|
b|-------------------------------------------------|
g|-2-----2-----2-----2---2-4-----4-----5-----5-----|
d|-2-----2-----2-----2---2-4-----4-----5-----5-----|
a|-0-----0-----0-----0---0-2-----2-----3-----3-----|
e|-------------------------------------------------|

Postchorus:
e|-------------------------------------------------|
b|-------------------------------------------------|
g|-------------------------------------------------|
d|-------------------------------------------------|
a|-4-----4-----4-----4-----4-----4-----4--p2----2--|
e|-------------------------------------------4-----|

Verse:
e|-------------------------------------------------|
b|-------------------------------------------------|
g|-------------------------------------------------|
d|-----2-----------2-------------------------------|
a|-2h4---4-4---2h4---4-4-------2-----------2-------|
e|-------------------------2h4---4-4---2h4---4-4-3-|

e|-------------------------------------------------|
b|-------------------------------------------------|
g|-------------------------------------------------|
d|-----------------------------1-----------1-------|
a|-----0-----------0-------0h2---2-2---0h2---2-x-3-|
e|-0h2---2-2---0h2---2-2---------------------------|

e|-------------------------------------------------|
b|-------------------------------------------------|
g|-------------------------------------------------|
d|-----2-----------2-------------------------------|
a|-2h4---4-4---2h4---4-4-------2-----------2-------|
e|-------------------------2h4---4-4---2h4---4-4-3-|

e|-------------------------------------------------|
b|-------------------------------------------------|
g|-------------------------4-4-4-4-4-4-5-------5-6\|
d|-------------------------4-4-4-4-4-4-5-------5-6\|
a|-----0-----------0-------2-2-2-2-2-2-3-------3-4\|
e|-0h2---2-2---0h2---2-2---------------------------|

Prechorus:
no guitar

Chorus:
e|-------------------------------------------------|-- |
b|-------------------------------------------------|-- |
g|-6-----6-----6-----6---6-------------------------|-- |
d|-6-----6-----6-----6---6-2-----2-----2-----2---2-|-- |
a|-4-----4-----4-----4---4-2-----2-----2-----2---2-|-- |
e|-------------------------0-----0-----0-----0---0-|-- |
                                                    |x2
e|-------------------------------------------------|-- |
b|-------------------------------------------------|-- |
g|-4-----4-----4-----------------------------------|-- |
d|-4-----4-----4-----x---4-----x-4---4-4---4-4---4-|-- |
a|-2-----2-----2-----x---4-----x-4---4-4---4-4---4-|-- |
e|-------------------x---2-----x-2---2-2---2-2---2---- |

e|-------------------------------------------------|
b|-------------------------------------------------|
g|-2-----2-----x-----------------------------------|
d|-2-----2-----x-----2-----------2-----2-----2---2-|
a|-0-----0-----x-----2-----------2-----2-----2---2-|
e|-------------------0-----------0-----0-----0---0-|

e|-------------------------------------------------|
b|-------------------------------------------------|
g|-4-----4-----x-----------------------------------|
d|-4-----4-----x-----4-----------4-----4-----4---4-|
a|-2-----2-----x-----4-----------4-----4-----4---4-|
e|-------------------2-----------2-----2-----2---2-|

e|-------------------------------------------------|
b|-------------------------------------------------|
g|-2-----2-----2-----2---2-4-----4-----5-----5-----|
d|-2-----2-----2-----2---2-4-----4-----5-----5-----|
a|-0-----0-----0-----0---0-2-----2-----3-----3-----|
e|-------------------------------------------------|

Bridge:
e|-------------------------------------------------|
b|-------------------------------------------------|
g|-------------------------------------------------|
d|-------------------------------------------------|
a|-4--4--4--4--4--4--4p2-2-4--4--4--4--4--4--4p2-2-|
e|----------------------4-----------------------4--|

e|-------------------------------------------------|
b|-------------------------------------------------|
g|-------------------------------------------------|
d|-------------------------------------------------|
a|-4--4--4--4--4--4--4p2-2-------------------------|
e|----------------------4--4-----3-----2--2--2-0---|

e|-------------------------------------------------|
b|-------------------------------------------------|
g|-------------------------------------------------|
d|-------------------------------------------------|
a|-4--4--4--4--4--4--4p2-2-4--4--4--4--4--4--4p2-2-|
e|----------------------4-----------------------4--|

e|-------------------------------------------------|
b|-------------------------------------------------|
g|-------------------------------------------------|
d|-------------------------------------------------|
a|-4--4--4--4--4--4--4p2-2-------------------------|
e|----------------------4--4-----3-----2--2--2-0---|

e|----------------------------------------------------|
b|----------------------------------------------------|
g|-------------------------------------------------6\-|
d|-------------------------------------------------6\-|
a|-------------------------6--6--5--5--4--4--4-2---4\-|
e|-7-----6-----5--5--5-4------------------------------|


Final Chorus:
e|-------------------------------------------------|
b|-------------------------------------------------|
g|-6-----------------------------------------------|
d|-6-----------------------2-----------------------|
a|-4-----------------------2-----------------------|
e|-------------------------0-----------------------|

e|-------------------------------------------------|
b|-------------------------------------------------|
g|-4-----------------------------------------------|
d|-4-----------------x---4-----x-4---4-4---4-4---4-|
a|-2-----------------x---4-----x-4---4-4---4-4---4-|
e|-------------------x---2-----x-2---2-2---2-2---2-|

e|-------------------------------------------------|
b|-------------------------------------------------|
g|-6-----6-----6-----6---6-------------------------|
d|-6-----6-----6-----6---6-2-----2-----2-----2---2-|
a|-4-----4-----4-----4---4-2-----2-----2-----2---2-|
e|-------------------------0-----0-----0-----0---0-|

e|-------------------------------------------------|
b|-------------------------------------------------|
g|-4-----4-----4-----------------------------------|
d|-4-----4-----4-----x---4-----x-4---4-4---4-4---4-|
a|-2-----2-----2-----x---4-----x-4---4-4---4-4---4-|
e|-------------------x---2-----x-2---2-2---2-2---2-|

e|-------------------------------------------------|
b|-------------------------------------------------|
g|-2-----2-----x-----------------------------------|
d|-2-----2-----x-----2-----------2-----2-----2---2-|
a|-0-----0-----x-----2-----------2-----2-----2---2-|
e|-------------------0-----------0-----0-----0---0-|

e|-------------------------------------------------|
b|-------------------------------------------------|
g|-4-----4-----x-----------------------------------|
d|-4-----4-----x-----4-----------4-----4-----4---4-|
a|-2-----2-----x-----4-----------4-----4-----4---4-|
e|-------------------2-----------2-----2-----2---2-|

e|-------------------------------------------------|
b|-------------------------------------------------|
g|-2-----2-----2-----2---2-4-----4-----5-----5-----|
d|-2-----2-----2-----2---2-4-----4-----5-----5-----|
a|-0-----0-----0-----0---0-2-----2-----3-----3-----|
e|-------------------------------------------------|

e|-------------------------------------------------|
b|-------------------------------------------------|
g|-------------------------------------------------|
d|-------------------------------------------------|
a|-4-----4-----4-----4-----4-----4-----4--p2----2--|
e|-------------------------------------------4-----|

e|-------------------------------------------------|
b|-------------------------------------------------|
g|-2-----2-----x-----------------------------------|
d|-2-----2-----x-----2-----------2-----2-----2---2-|
a|-0-----0-----x-----2-----------2-----2-----2---2-|
e|-------------------0-----------0-----0-----0---0-|

e|-------------------------------------------------|
b|-------------------------------------------------|
g|-4-----4-----x-----------------------------------|
d|-4-----4-----x-----4-----------4-----4-----4---4-|
a|-2-----2-----x-----4-----------4-----4-----4---4-|
e|-------------------2-----------2-----2-----2---2-|

e|-------------------------------------------------|
b|-------------------------------------------------|
g|-2-----2-----2-----2---2-4-----4-----5-----5-----|
d|-2-----2-----2-----2---2-4-----4-----5-----5-----|
a|-0-----0-----0-----0---0-2-----2-----3-----3-----|
e|-------------------------------------------------|

e|-------------------------------------------------|
b|-------------------------------------------------|
g|-6-----6-----6-----6-----6\----------------------|
d|-6-----6-----6-----6-----6\----------------------|
a|-4-----4-----4-----4-----4\----------------------|
e|-------------------------------------------------|
            
Submit corrections


        The Brightest Green  lessons Hard to play? Try these video lessons and learn fast The Brightest Green  lessons
        
↑ Back to top | Tablatures and chords for acoustic guitar and electric guitar, ukulele, drums are parodies/interpretations of the original songs. You may use it for private study, scholarship, research or language learning purposes only