» » »

Anarbor - 18 Tabs

Artists:  A B C D E F G H I J K L M N O P Q R S T U V W X Y Z # 

18 Tabs

(ver. 1) Click to play this song!
Anarbor
 Rating:
4/5 (4 votes)

 18  lessons Tabs too difficult? Try these video lessons and learn fast
 
                No Capo
Standard Tuning (EADGBe)

If you play them as power chords it sound a lot more like the recording...

Intro:
e-------------------------------------------------------I
B---4-4-5-5---------------------------------------------I
G-------------4-4---4-4-4--3-3--------------------------I
D-------------------------------------------------------I  X2   
A-------------------------------------------------------I
E-------------------------------------------------------I

Verse:
e-------------------------------------------------------I
B---4-4-5-5---------------------------------------------I
G-------------4-4---4-4-4--3-3--------------------------I
D-------------------------------------------------------I  X4   
A-------------------------------------------------------I
E-------------------------------------------------------I

18 crazy, pulled up in your daddy’s car you wanna
Move in with me; guess we’re off to a heavy start,
Should have seen this coming from a mile away
18 crazy, I know what you want from me
F#                              E
I know what you want from me


Chorus:
                             B
So if you wanna p**s off your parents,
F#
Date me to scare them
E                                                 F#
Show them you’re all grown up
B                                      F#
If long hair and tattoos are what attracts you
E                                          F#
Baby then you’re in luck
        B                         F#m
And I know it’s just a phase
           G#m                      E
You’re not in love with me
        B                         F#
You wanna p**s off your parents baby
              E
You wanna p**s off your parents,
                        B (let it ring)
That’s alright with me



Verse:
e-----------------------------------------------------I
B----4-4-5-5------------------------------------------I
G-------------4-4---4-4-4--3-3------------------------I
D-----------------------------------------------------I  X4     
A-----------------------------------------------------I
E-----------------------------------------------------I

You know I’m broke, so you pull out your daddy’s card,
I drink, I smoke; you ate it up from the very start,
Should have seen this coming from a mile away,
I’ll play your game, I know what you want from me,
  F#                          E
I know what you want from me


Chorus:
                             B
So if you wanna p**s off your parents,
F#
Date me to scare them
E                                                 F#
Show them you’re all grown up
B                                      F#
If long hair and tattoos are what attracts you
E                                          F#
Baby then you’re in luck
        B                         F#m
And I know it’s just a phase
           G#m                      E
You’re not in love with me
        B                         F#
You wanna p**s off your parents baby
              E
You wanna p**s off your parents,
                       B
That’s alright with me

Bridge:
E E E           Ooooh

E E E           Oooooh

E E E           Oooooh

E E E F# B 

E E E           Ooooh

Em              Ooooh

E E E           Ooooh

E F# B F# 

E
I know what you want from me
F#m
Oooooooooh


Chorus:
                             B
So if you wanna p**s off your parents,
F#
Date me to scare them
E                                                 F#
Show them you’re all grown up
B                                      F#
If long hair and tattoos are what attracts you
E                                          F#
Baby then you’re in luck
        B                         F#m
And I know it’s just a phase
           G#m                      E
You’re not in love with me
 B                                 F#m
And I know it’s just a phase 
             G#m                         E
You’re not in love with me
                      B                                F#
You wanna p**s off your parents baby
E
p**s off your parents, that’s alright
                    B                                   F#
You wanna p**s off your parents baby
E
p**s off your parents
         F#                             B        
That’s alright with me 

(Fade out on B)            
Submit corrections


        18  lessons Hard to play? Try these video lessons and learn fast 18  lessons
        
↑ Back to top | Tablatures and chords for acoustic guitar and electric guitar, ukulele, drums are parodies/interpretations of the original songs. You may use it for private study, scholarship, research or language learning purposes only