Home » A » Amy Grant »

Amy Grant - House Of Love Tabs

Artists:  A B C D E F G H I J K L M N O P Q R S T U V W X Y Z # 

House Of Love Tabs

(ver. 1) Click to play this song!
Amy Grant
#------------------------------------------------------------------------------##

HOUSE OF LOVE - by Wally Wilson, Kenny Greenberg, and Greg Barnhill


	Db	x46664
        Db/C	x46564
	F#      244322
	F#m	244222
	A#m	x12231
	G#	466544
	B11	799877

Intro:
Db  Db/C
F#  G#

Chorus:
       Db                    Db/C
Well I bet you any amount of money
                 F#
He'll be coming back to you
F#m                              Db
Ooh I know there ain't no doubt about it
                  Db/C
Sometimes life is funny
                           F#
You think you're in your darkest hour
          F#m             B11         Db
When the lights are coming on in the house of love
(Db/C  F#  G#)

First verse:
 A#m
You've been up all night
 G#
Thinking it was over
 A#m
He's been out of sight
 G#
At least for the moment
 F#
But when something this strong
 G#
Gets a hold on you
                F#
The odds are ninety-nine to one
             G#
It's got a hold on him too

Repeat chorus:

Second verse:
 A#m
Now when the house is dark
 G#
And you're all alone inside
 A#m
You've gotta listen to your heart
 G#
And put away your foolish pride
 F#
Though the storm is breaking
 G#
And thunder shakes the walls
 F#
Love with a firm foundation
 G#
Ain't never gonna fall

Repeat chorus:

Solo:

---6--6--4----------------------------------------------|----|
------------6--4-----------6-----4----------------------|----|
------------------6--3--------6--------6h8--6--5--------|----|
------------------------6-------------------------6-----|----|
-----------------------------------------------------6--|----|
--------------------------------------------------------|----|


------6-----4h6--6--------6-----4-----8h9--8------------|----|
---6-----6-------------6-----6----------------9---------|----|
-------------------------------------------------8------|----|
--------------------------------------------------------|----|
--------------------------------------------------------|----|
--------------------------------------------------------|----|

 F#
Though the storm is breaking
 G#
And thunder shakes the walls
 F#
Love with a firm foundation
 G#
Ain't never gonna fall

Repeat chorus:
(on this last chorus, play all chords up one octave)
            
Submit corrections

↑ Back to top | Tablatures and chords for acoustic guitar and electric guitar, ukulele, drums are parodies/interpretations of the original songs. You may use it for private study, scholarship, research or language learning purposes only