Home » A » Amos Tori »

Amos Tori - Tear In Your Hand Bass

Artists:  A B C D E F G H I J K L M N O P Q R S T U V W X Y Z # 

Tear In Your Hand Bass
Version #1
Amos Tori


Copy URL
-------------------
    Tori Amos
    Tear In Your Hand
   -------------------

(from the album Little Earthquakes)


Well I'm doing this just 'cause I was asked to, it's not *very* interesting on behalf of the bass... =)



PS: And for those who do not know already: check out the Tori Amos
    Lyrics Database (TALD) for loads of information on her lyrics
    and songs in general:




-- represents a quaver note

4/4 time

G|----------------|----------------|-
D|----------------|2--------------*|-    repeat this
A|2-----------2---|---------------*|-    until
E|----------------|----------------|-

  00:54
G|----------------|----------------|-
D|----------------|2---2-2-----2--*|-    repeat once then
A|----------------|---------------*|-    back to first riff...
E|4---4-4-----4---|----------------|-


and the bridge at 02:00...
G|----------------|----------------|-
D|----------------|---------------*|-   repeat
A|----------------|0--00-0-----0--*|-   twice
E|2-2---2-----2---|----------------|-


fourth time
G|----------------|----------------|-
D|----------------|----------------|-
A|----------------|0---------------|-
E|2-2---2-----2---|----------------|-

no bass until 02:38 when it starts with riff 1 again.


This is basically it, but the bass does vary a bit, like

G|----------------|----------------|-
D|----------------|2-222-2---2-2-2*|-
A|2-222-2---2-2-2-|---------------*|-
E|----------------|----------------|-

or suchlike, using slides, hammer ons etc. Make it up or listen
to the recording :-)
            
Submit corrections

↑ Back to top | Tablatures and chords for acoustic guitar and electric guitar, ukulele, drums are parodies/interpretations of the original songs. You may use it for private study, scholarship, research or language learning purposes only