Home » A » Amos Tori »

Amos Tori - Concertina Bass

Artists:  A B C D E F G H I J K L M N O P Q R S T U V W X Y Z # 

Concertina Bass
Version #1
Amos Tori


Copy URL
-------------
    Tori Amos
    Concertina
  -------------

Author's Note: To me Tori Amos is the Queen of Music anyhow, even more
  since I Found many of her songs very interesting to play on the bass
  too. So this is only my first go, watch out for more transcriptions of
  her songs coming soon. Enjoy this one, it is played smoothly, the
  slides being short and soft.




slow 4/4 time


G|----------------|----0---1-------|----------------|----------------|-
D|----------------|3-----------3---|------------1---|----------------|-
A|--------1---3---|----------------|1---3---4-------|1---3---4---1---|-
E|1---4-----------|----------------|----------------|----------------|-

bass begins 00:20

G|----------------|----------------|6---5---3-------|----------------|-
D|----------------|--------3---6---|------------6--3|----------------|-
A|----------------|4---6-----------|----------------|----------------|-
E|4---3---1-------|----------------|----------------|4---3---1-------|-

                                                    00:43 chorus

G|----------------|----------------|----0---1-------|----------------|-
D|----1---3-------|----------------|1---------------|----------------|-
A|4-----------4---|----------------|------------4--3|----------------|-
E|----------------|4---3---1-------|----------------|4---3---1-------|-


G|------------3--5|----------------|------------3---|----------------|-
D|--------3-------|6---5---3-------|----3---5-------|--------3-------|-
A|4---6-----------|----------------|6---------------|4---6-------4---|-
E|----------------|------------4---|----------------|----------------|-


G|----------------|----------------|----------------|----0---1-------|-
D|----------------|----------------|----------------|3---------------|-
A|----------------|----------------|--------1---3---|------------3---|-
E|1--------------1|1---------------|1---4-----------|----------------|-

                                    01:19

G|----------------|----------------|----------------|----------------|-
D|----------------|3---1-----------|----------------|----------------|-
A|--------1---3---|--------4---3---|--------1---3---|----------------|-
E|1---4-----------|----------------|1---4-----------|1---3---4---3---|-


G|----------------|----0---1---0---|3---5---6---5---|3---------------|-
D|----------------|3---------------|----------------|----6---3-------|-
A|----------------|----------------|----------------|------------6---|-
E|1---4---1---3---|----------------|----------------|----------------|-


G|----------------|----------------|------------3---|----------------|-
D|-----------/3---|--------3---6---|--------3------3|6---5---3-------|-
A|----------------|4---6-----------|4---6-----------|----------------|-
E|4---3---1-------|----------------|----------------|------------4---|-

                                                     02:01 chorus

G|------------3---|----------------|----------------|----------------|-
D|--------3------3|6---5---3-------|----3-------3---|----------------|-
A|4---6-----------|----------------|6-------4-------|----------------|-
E|----------------|------------6---|----------------|4---3---1-------|-


G|----------------|----------------|------------3--/|6---6---6---6\--|-
D|----1---3-------|-------/3-------|----3---5-------|----------------|-
A|4-----------4---|--------------4-|6---------------|----------------|-
E|----------------|4---3-------4---|----------------|----------------|-


G|----------------|----------------|----------------|----------------|-
D|----------------|----------------|----------------|----------------|-
A|----------------|----------------|3-------3-------|3-------3-------|-
E|1-------1-------|1-------1-------|----------------|----------------|-


G|----------------|----------------|---------------1|3---5---6---5--3|-
D|3---1-----------|----------------|------------1-3-|----------------|-
A|--------4---3---|------------3---|1---3---4-------|----------------|-
E|----------------|1---3---4-------|----------------|----------------|-

  02:44

G|----------------|---------------/|6---5-----------|----------------|-
D|6---5---3-------|--------3---6---|--------6---3---|----------------|-
A|---------------3|4---6-----------|---------------6|----------------|-
E|------------4-6-|----------------|----------------|4---3---1-------|-

                                                     03:07 chorus

G|----------------|----------------|----0---6---5--3|----------------|-
D|----1---3-------|----------------|1---------------|6---5---3-------|-
A|4-----------4--3|----------------|----------------|---------------3|-
E|----------------|4---3---1-------|----------------|------------4---|-


G|----------------|----------------|----0-----------|----------------|-
D|--------3-------|----------------|1-------3---1---|----1---3-------|-
A|4---6-------6--4|----------------|----------------|4-----------4---|-
E|----------------|4---3---1-------|----------------|----------------|-


G|----------------|----------------|----------------|----------------|-
D|----------------|----------------|----------------|3hold-----------|-
A|----------------|----------------|--------1---3---|----------------|-
E|1-------1-------|1-------1-------|1---4-----------|----------------|-
            
Submit corrections

↑ Back to top | Tablatures and chords for acoustic guitar and electric guitar, ukulele, drums are parodies/interpretations of the original songs. You may use it for private study, scholarship, research or language learning purposes only