Home » A » American Football »

American Football - The One With The Tambourine Tabs

Artists:  A B C D E F G H I J K L M N O P Q R S T U V W X Y Z # 

The One With The Tambourine Tabs

(ver. 1) Click to play this song!
American Football
Tuning: EAEG#Be

[Verse/intro/etc.]

e |----------------- | x8 |-----0-----0----0-----0-|--|   x4
B |---------0---0--- |    |---0-----0----0-----0---|--|
G#|-----------3--3h0 |    |-8----7-----5-----3-----|-3|
E |---0h2h4--------- |    |------------------------|--|
A |----------------- |    |------------------------|--|
E |-0--------------- |    |------------------------|--|

e |----------------- | x8 |-------7---0-------7--0-|--| x4
B |---------0---0--- |    |---9-----------9--------|--|
G#|-----------3--3h0 |    |-9---9-------9---9------|-9|
E |---0h2h4--------- |    |------------------------|--|
A |----------------- |    |------------------------|--|
E |-0--------------- |    |------------------------|--|

[Chorus]
e |--------4p2p0--7--------------------|--------4p2p0--7------------0-------|
B |-0-------------------0--------------|-0-------------------0--------4-----|
G#|-1---------------3h5----------------|-1---------------3h5----------------|
E |-0---------------------4hbr---4-----|-0---------------------4hbr---------|
A |-0----------------------------------|-0----------------------------------|
E |------------------------------------|------------------------------------|

e |------------------------------------|------------------------------------|
B |-0-------------0-------0------0-----|-0-------------0-------0------0-----|
G#|-1-------------3-------6------0-----|-1-------------3-------5------0-----|
E |-0-------------2-------4------0-----|-0-------------2-------4------0-----|
A |-0-------------2-------4------2-----|-0-------------2-------4------2-----|
E |------------------------------0-----|------------------------------0-----|

e |---------4p2p0--7-------------------|------------------------------------|
B |-0--------------------0-------------|-0------0------4-5-7-9-12-----------|
G#|-1----------------3h5---------------|-3------1------3-5-7-8-12-----------|
E |-0----------------------4hbr--------|-2------0---------------------------|
A |-0----------------------------------|-2------0---------------------------|
E |------------------------------------|------------------------------------|

e |---------------------------------------|---------------0------------------|
B |-0--------------0-------0------0-------|-0------0------0------------------|
G#|-1--------------3-------5------0-------|-3------1------8------------------|
E |-0--------------2-------4------0-------|-2------0------7------------------|
A |-0--------------2-------4------2-------|-2------0------7------------------|
E |-------------------------------0-------|----------------------------------|

[Bridge] 
(underneath regular guitar 1 verse part)
                                  [repeat this part a ton]
e |-------------------------------|----7----------7---------|
B |-12-10-9----------0--0--0------|---------9----------9----|
G#|-12-10-8----------5--7--8------|--8----8-----8----8------|
E |------------------------7------|-------------------------|
A |------------------------7------|-------------------------|
E |-------------------------------|-------------------------|

[Solo]
Then, repeat the Chorus, then the E-bow solo over the verse part: 
e |-----------------|---------(16)----|------------|-----------------|
B |-12-------9------|-12--------------|------------|-----------------|
G#|-----------------|----------12-----|------------|------------10---|
E |-----------------|-----------------|-9----------|--------11-----9-|
A |-----------------|-----------------|------------|-----------------|
E |-----------------|-----------------|------------|-----------------|

e |--------------|-----------------|---------------|-------------|
B |--------------|-----------------|---------------|-------------|
G#|--------------|-----------------|---------------|-------------|
E |-11---------4-|-4h5p4h5p4h5p4h5-|---------------|-------------|
A |--------------|-----------------|---------------|-------------|
E |--------------|-----------------|---------------|-------------|
 
e |(12)-------------|---------(16)----|------------|-----------------|
B |-12-------9------|-12--------------|------------|-----------------|
G#|-----------------|----------12-----|------------|------------10---|
E |-----------------|-----------------|-9----------|--------11-----9-|
A |-----------------|-----------------|------------|-----------------|
E |-----------------|-----------------|------------|-----------------|

e |------------------------------|-----------------|-------------|-----------|
B |------------------------------|-----------------|-------------|-----------|
G#|------------------------------|-----------------|-------------|-----------|
E |-12h14p12-11h12p11--9h11p9---4|-4h5p4h5p4h5p4h5-|-------------|-----------|
A |------------------------------|-----------------|-------------|-----------|
E |------------------------------|-----------------|-------------|-----------|

[Outro]   
                       x8
e |----------------- |    |-------------------------------|
B |---------0---0--- |    |-0--------0--------0-----------|
G#|-----------3--3h0 |    |-3--------1--------0-----------|
E |---0h2h4--------- |    |-4--------0--------0-----------|
A |----------------- |    |-7--------0--------2-----------|
E |-0--------------- |    |-------------------0-----------|
            
Submit corrections

↑ Back to top | Tablatures and chords for acoustic guitar and electric guitar, ukulele, drums are parodies/interpretations of the original songs. You may use it for private study, scholarship, research or language learning purposes only