Home » A » American Football »

American Football - Home Is Where The Haunt Is Chords

Artists:  A B C D E F G H I J K L M N O P Q R S T U V W X Y Z # 

Home Is Where The Haunt Is Chords

(ver. 1) Click to play this song!
American Football
[Intro]
E|-----------------|-------------------|--------------------|-------------------|-------------------|
C|-----------------|-------------------|--------------------|-------------------|-------------------|
G|---------------0-|--------0--------0-|--------0----0----0-|--------0--------0-|--------0--------0-|
C|-----------------|----0--------0-----|----0---------------|----0--------0-----|----0--------0-----|
A|-----------------|-12-------12-------|-12-------12--------|------0--------0---|------0--------0---|
F|-----------------|------0--------0---|------0--------12---|-11-------11-------|-11-------11-------|
 
 
E|-------------------|---------------------|-------------------|-----------------|
C|-------------------|---------0-----------|-------------------|-----------------|
G|--------0--------0-|--------------0----0-|--------0--------0-|-------0-------0-|
C|----0--------0-----|----11---------------|----0--------0-----|---0-------0-----|
A|-12-------12-------|-12--------12--------|------0--------0---|-5-------5-------|
F|------0--------0---|-------0--------12---|-11-------11-------|-----2-------2---|
 
 
E|-------------------|--------------------|-------------------|-------------------|
C|-------------------|--------------------|-------------------|-------------------|
G|--------0--------0-|--------0----0----0-|--------0--------0-|--------0--------0-|
C|----0--------0-----|----0---------------|----0--------0-----|----0--------0-----|
A|-12-------12-------|-12-------12--------|------0--------0---|------0--------0---|
F|------0--------0---|------0--------12---|-11-------11-------|-11-------11-------|
 
 
E|-------------------|---------------------|-------------------|-----------------|
C|-------------------|---------0-----------|-------------------|-----------------|
G|--------0--------0-|--------------0----0-|--------0--------0-|-------0-------0-|
C|----0--------0-----|----11---------------|----0--------0-----|---0-------0-----|
A|-12-------12-------|-12--------12--------|------0--------0---|-5-------5-------|
F|------0--------0---|-------0--------12---|-11-------11-------|-----2-------2---|
 
 
[Verse 1]
E|-------------------|--------------------|-------------------|-------------------|
C|-------------------|--------------------|-------------------|-------------------|
G|--------0--------0-|--------0----0----0-|--------0--------0-|--------0--------0-|
C|----0--------0-----|----0---------------|----0--------0-----|----0--------0-----|
A|-12-------12-------|-12-------12--------|------0--------0---|------0--------0---|
F|------0--------0---|------0--------12---|-11-------11-------|-11-------11-------|
                      "Home is where the haunt is"
 
E|-------------------|---------------------|-------------------|-----------------|
C|-------------------|---------0-----------|-------------------|-----------------|
G|--------0--------0-|--------------0----0-|--------0--------0-|-------0-------0-|
C|----0--------0-----|----11---------------|----0--------0-----|---0-------0-----|
A|-12-------12-------|-12--------12--------|------0--------0---|-5-------5-------|
F|------0--------0---|-------0--------12---|-11-------11-------|-----2-------2---|
                      "Those wounds won't lick themselves, it's a good thing you're not alone"
 
E|-------------------|--------------------|-------------------|-------------------|
C|-------------------|--------------------|-------------------|-------------------|
G|--------0--------0-|--------0----0----0-|--------0--------0-|--------0--------0-|
C|----0--------0-----|----0---------------|----0--------0-----|----0--------0-----|
A|-12-------12-------|-12-------12--------|------0--------0---|------0--------0---|
F|------0--------0---|------0--------12---|-11-------11-------|-11-------11-------|
                                                "He's been here"
 
E|-------------------|---------------------|-------------------|-----------------|
C|-------------------|---------0-----------|-------------------|-----------------|
G|--------0--------0-|--------------0----0-|--------0--------0-|-------0-------0-|
C|----0--------0-----|----11---------------|----0--------0-----|---0-------0-----|
A|-12-------12-------|-12--------12--------|------0--------0---|-5-------5-------|
F|------0--------0---|-------0--------12---|-11-------11-------|-----2-------2---|
  "All along .................................... you can't see him"
 
E|-----------------|-----------------|-----------------|-----------------|
C|-----------------|-----------------|-----------------|-----------------|
G|-------0-------0-|-------0-------0-|-------0-------0-|-------0-------0-|
C|---0-------0-----|---0-------0-----|---0-------0-----|---0-------0-----|
A|-7-------7-------|-8-------8-------|-7-------7-------|-5-------5-------|
F|-----4-------4---|-----0-------0---|-----4-------4---|-----2-------2---|
        "But you know he's there ......................... the ghost in the"
 
[Chorus 1]
E|--------------------|-----------------0------|--------<12>----------|-------------------|
C|--------------------|------------------------|--------<12>----------|-------------------|
G|---------0--------0-|---------<12>---------0-|--------------------0-|--------0--------0-|
C|----12-------12-----|----12------------------|----0-----------0-----|----0--------0-----|
A|-14-------14------ -|-14-----------14--------|------0-----------0---|------0--------0---|
F|-------0--------0---|-------0-----------12---|-11----------11-------|-11-------11-------|
  "Corner of the room ......................................... he knows what you sleep in"
 
E|--------------------|-----------------0------|--------<12>----------|-----------------|
C|--------------------|------------------------|--------<12>----------|-----------------|
G|---------0--------0-|---------<12>---------0-|--------------------0-|-------0-------0-|
C|----12-------12-----|----12------------------|----0-----------0-----|---0-------0-----|
A|-14-------14------ -|-14-----------14--------|------0-----------0---|-5-------5-------|
F|-------0--------0---|-------0-----------12---|-11----------11-------|-----2-------2---|
              "When you're dreaming ..... and of who ...................... well some things"
 
E|--------------------|-----------------0------|--------<12>----------|-------------------|
C|--------------------|------------------------|--------<12>----------|-------------------|
G|---------0--------0-|---------<12>---------0-|--------------------0-|--------0--------0-|
C|----12-------12-----|----12------------------|----0-----------0-----|----0--------0-----|
A|-14-------14------ -|-14-----------14--------|------0-----------0---|------0--------0---|
F|-------0--------0---|-------0-----------12---|-11----------11-------|-11-------11-------|
  "Never change ................................................................ maybe"
 
E|--------------------|-----------------0------|--------<12>----------|-----------------|
C|--------------------|------------------------|--------<12>----------|-----------------|
G|---------0--------0-|---------<12>---------0-|--------------------0-|-------0-------0-|
C|----12-------12-----|----12------------------|----0-----------0-----|---0-------0-----|
A|-14-------14------ -|-14-----------14--------|------0-----------0---|-5-------5-------|
F|-------0--------0---|-------0-----------12---|-11----------11-------|-----2-------2---|
  "That's okay"
 
E|-----------------|-----------------|-----------------|-----------------|
C|-----------------|-----------------|-----------------|-----------------|
G|-------0-------0-|-------0-------0-|-------0-------0-|-------0-------0-|
C|---0-------0-----|---0-------0-----|---0-------0-----|---0-------0-----|
A|-7-------7-------|-8-------8-------|-7-------7-------|-5-------5-------|
F|-----4-------4---|-----0-------0---|-----4-------4---|-----2-------2---|
 
 
[Verse 2]
E|-------------------|--------------------|-------------------|-------------------|
C|-------------------|--------------------|-------------------|-------------------|
G|--------0--------0-|--------0----0----0-|--------0--------0-|--------0--------0-|
C|----0--------0-----|----0---------------|----0--------0-----|----0--------0-----|
A|-12-------12-------|-12-------12--------|------0--------0---|------0--------0---|
F|------0--------0---|------0--------12---|-11-------11-------|-11-------11-------|
                      "Home is where the haunt is"
 
E|-------------------|---------------------|-------------------|-----------------|
C|-------------------|---------0-----------|-------------------|-----------------|
G|--------0--------0-|--------------0----0-|--------0--------0-|-------0-------0-|
C|----0--------0-----|----11---------------|----0--------0-----|---0-------0-----|
A|-12-------12-------|-12--------12--------|------0--------0---|-5-------5-------|
F|------0--------0---|-------0--------12---|-11-------11-------|-----2-------2---|
                      "The past still present tense ............ you need more"
 
E|-------------------|--------------------|-------------------|-------------------|
C|-------------------|--------------------|-------------------|-------------------|
G|--------0--------0-|--------0----0----0-|--------0--------0-|--------0--------0-|
C|----0--------0-----|----0---------------|----0--------0-----|----0--------0-----|
A|-12-------12-------|-12-------12--------|------0--------0---|------0--------0---|
F|------0--------0---|------0--------12---|-11-------11-------|-11-------11-------|
  "Time to mourn .............................................. you shouldn't sulk for"
 
E|-------------------|---------------------|-------------------|-----------------|
C|-------------------|---------0-----------|-------------------|-----------------|
G|--------0--------0-|--------------0----0-|--------0--------0-|-------0-------0-|
C|----0--------0-----|----11---------------|----0--------0-----|---0-------0-----|
A|-12-------12-------|-12--------12--------|------0--------0---|-5-------5-------|
F|------0--------0---|-------0--------12---|-11-------11-------|-----2-------2---|
  "Too long ................................... you look like hell"
 
E|-----------------|-----------------|-----------------|-----------------|
C|-----------------|-----------------|-----------------|-----------------|
G|-------0-------0-|-------0-------0-|-------0-------0-|-------0-------0-|
C|---0-------0-----|---0-------0-----|---0-------0-----|---0-------0-----|
A|-7-------7-------|-8-------8-------|-7-------7-------|-5-------5-------|
F|-----4-------4---|-----0-------0---|-----4-------4---|-----2-------2---|
                                "An accidental version of yourself"
 
[Bridge]
E|-----------------|-----------------|-----------------|-----------------|
C|-----------------|-------0---------|-----------------|-----------------|
G|-------0-------0-|---------------0-|-------0-------0-|-------0-------0-|
C|---0-------0-----|---0-------0-----|---0-------0-----|---0-------0-----|
A|-8-------8-------|-8-------8-------|-8-------8-------|-8-------8-------|
F|-----0-------0---|-----0-------0---|-----0-------0---|-----0-------0---|
 
 
E|-----------------|------------------|-----------------|-----------------|
C|-----------------|------------------|-------0---------|-----------------|
G|-------0-------0-|-------0--------0-|---------------0-|-------0-------0-|
C|---0-------0-----|---0-------0------|---0-------0-----|---0-------0-----|
A|-7-------7-------|-7-------7---10---|-8-------8-------|-8-------8-------|
F|-----9-------7---|-----9------------|-----0-------0---|-----0-------0---|
                                                   "You can't just"
 
E|-----------------|------------------|-----------------|-----------------|
C|-----------------|------------------|-------0---------|-----------------|
G|-------0-------0-|-------0--------0-|---------------0-|-------0-------0-|
C|---0-------0-----|---0-------0------|---0-------0-----|---0-------0-----|
A|-7-------7-------|-7-------7---10---|-8-------8-------|-8-------8-------|
F|-----9-------7---|-----9------------|-----0-------0---|-----0-------0---|
      "Forget"
 
E|-----------------|------------------|-----------------|-----------------|
C|-----------------|------------------|-------0---------|-----------------|
G|-------0-------0-|-------0--------0-|---------------0-|-------0-------0-|
C|---0-------0-----|---0-------0------|---0-------0-----|---0-------0-----|
A|-7-------7-------|-7-------7---10---|-8-------8-------|-8-------8-------|
F|-----9-------7---|-----9------------|-----0-------0---|-----0-------0---|
                                                   "All the other"
 
E|-----------------|-----------------|-----------------|-----------------|
C|-----------------|-----------------|-----------------|-----------------|
G|-------0-------0-|-------0---0-----|-----------------|---------------0-|
C|---0-------0-----|---0-----------0-|-----------------|-----------------|
A|-7-------7-------|-7---------------|-0---------------|-----------------|
F|-----9-------7---|-----9---7---6---|-----------------|-----------------|
  "Lives you've lived .................................... the ghost in the"
 
[Chorus 2]
E|--------------------|-----------------0------|--------<12>----------|-------------------|
C|--------------------|------------------------|--------<12>----------|-------------------|
G|---------0--------0-|---------<12>---------0-|--------------------0-|--------0--------0-|
C|----12-------12-----|----12------------------|----0-----------0-----|----0--------0-----|
A|-14-------14------ -|-14-----------14--------|------0-----------0---|------0--------0---|
F|-------0--------0---|-------0-----------12---|-11----------11-------|-11-------11-------|
  "Corner of the room ......................................... he knows how you're"
 
E|--------------------|-----------------0------|--------<12>----------|-----------------|
C|--------------------|------------------------|--------<12>----------|-----------------|
G|---------0--------0-|---------<12>---------0-|--------------------0-|-------0-------0-|
C|----12-------12-----|----12------------------|----0-----------0-----|---0-------0-----|
A|-14-------14------ -|-14-----------14--------|------0-----------0---|-5-------5-------|
F|-------0--------0---|-------0-----------12---|-11----------11-------|-----2-------2---|
  "Feeling ...... cause your dead to him too ............................ well some things"
 
E|--------------------|-----------------0------|--------<12>----------|-------------------|
C|--------------------|------------------------|--------<12>----------|-------------------|
G|---------0--------0-|---------<12>---------0-|--------------------0-|--------0--------0-|
C|----12-------12-----|----12------------------|----0-----------0-----|----0--------0-----|
A|-14-------14------ -|-14-----------14--------|------0-----------0---|------0--------0---|
F|-------0--------0---|-------0-----------12---|-11----------11-------|-11-------11-------|
  "Never change .............................................................. and maybe that's"
 
E|--------------------|-----------------0------|--------<12>----------|-----------------|
C|--------------------|------------------------|--------<12>----------|-----------------|
G|---------0--------0-|---------<12>---------0-|--------------------0-|-------0-------0-|
C|----12-------12-----|----12------------------|----0-----------0-----|---0-------0-----|
A|-14-------14------ -|-14-----------14--------|------0-----------0---|-5-------5-------|
F|-------0--------0---|-------0-----------12---|-11----------11-------|-----2-------2---|
  "Okay ................................................................. I know how you"
 
[Outro]
E|-----------------|-----------------|-----------------|-----------------|
C|-----------------|-----------------|-----------------|-----------------|
G|-------0-------0-|-------0-------0-|-------0-------0-|-------0-------0-|
C|---0-------0-----|---0-------0-----|---0-------0-----|---0-------0-----|
A|-7-------7-------|-8-------8-------|-7-------7-------|-5-------5-------|
F|-----4-------4---|-----5-------5---|-----4-------4---|-----2-------2---|
          "Hate"
 
E|-----------------|-----------------|
C|-----------------|-----------------|
G|-------0-------0-|-------0-------0-|
C|---0-------0-----|---0-------0-----|
A|-6-------6-------|-7-------7-------|
F|-----3-------3---|-----4-------4---|
                      "To sleep alone"
 
E|-------------------|--------------------|-------------------|-------------------|
C|-------------------|--------------------|-------------------|-------------------|
G|--------0--------0-|--------0----0----0-|--------0--------0-|--------0--------0-|
C|----0--------0-----|----0---------------|----0--------0-----|----0--------0-----|
A|-12-------12-------|-12-------12--------|------0--------0---|------0--------0---|
F|------0--------0---|------0--------12---|-11-------11-------|-11-------11-------|
 
 
E|-------------------|---------------------|-------------------------------------|
C|-------------------|---------0-----------|-------------------------------------|
G|--------0--------0-|--------------0----0-|-------------------------------------|
C|----0--------0-----|----11---------------|----0--------------------------------|
A|-12-------12-------|-12--------12--------|------0-(let ring)-------------------|
F|------0--------0---|-------0--------12---|-11----------------------------------|
            
Submit corrections

↑ Back to top | Tablatures and chords for acoustic guitar and electric guitar, ukulele, drums are parodies/interpretations of the original songs. You may use it for private study, scholarship, research or language learning purposes only