» » »

America - Star Spanged Banner Tabs

Artists:  A B C D E F G H I J K L M N O P Q R S T U V W X Y Z # 

Star Spanged Banner Tabs

(ver. 1) Click to play this song!
America
 Rating:
4.3/5 (22 votes)

 Star Spanged Banner  lessons Tabs too difficult? Try these video lessons and learn fast
 
                e|--0------0-5-9-7-5----------------9-7-5-4---2-4-5-5--------------|
B|---2---2--------------2-4-5---5-5-------------------5-2----------|
G|-----2--------------------------------------------------2--------|
D|-----------------------------------------------------------------|
A|-----------------------------------------------------------------|
E|-----------------------------------------------------------------|

e|---9-9-9-10-12-12-10-9-7-9-10-10---10-9-7-5-4---2-4-5-5-----------------------|
B|---------------------------------------------------------5-2------------------|
G|-------------------------------------------------------------------2----------|
D|------------------------------------------------------------------------------|
A|------------------------------------------------------------------------------|
E|------------------------------------------------------------------------------|

e|-----------------------------8-7----------------|
B|------8-8-8-7---------10-------10-8-8-7---------|
G|---7------------9-9-9---------------------------|
D|------------------------------------------------|
A|------------------------------------------------|
E|------------------------------------------------|

e|---------------7-8-10--------7-8-------------|
B|---------8-10----------8-10------10-8--------|
G|---7-7---------------------------------------|
D|---------------------------------------------|
A|---------------------------------------------|
E|---------------------------------------------|            
Submit corrections


        Star Spanged Banner  lessons Hard to play? Try these video lessons and learn fast Star Spanged Banner  lessons
        
↑ Back to top | Tablatures and chords for acoustic guitar and electric guitar, ukulele, drums are parodies/interpretations of the original songs. You may use it for private study, scholarship, research or language learning purposes only