Home » A » America »

America - Rainbow Song Chords

Artists:  A B C D E F G H I J K L M N O P Q R S T U V W X Y Z # 

Rainbow Song Chords

(ver. 1) Click to play this song!
America
[Intro]
    Em7       Em    F#m7
||:  /  /  /  /  |   /  /  /  /  :||


[Verse 1]
Em7                Em  F#m7
     Window frames a picture of winter time, 
Em7         Em  F#m7
     Within my room,
Em7                Em  F#m7
    Sometimes, then I laugh at the funny times, 
Em7        Em  F#m7
    We had in school,
         Em7               F#m7
Blowing leaves, ...broken dreams,
         Em7               F#m7   Em7
Seven - teen,  ...dancing queen------,
         F#m7    Em7
Dancing queen-------!


[Chorus]
 Bm
 I----  sleep on a rainbow,
 Em7 *
Hiding from the wake of the tide,
 Bm
 I----  am sleep on a rainbow,
    Em7 *
...ride---!
e |--0---------------------|
B |--3---------------------|
G |--0---2-2-2---2-/6--4~--|
D |--2---------4-----------|
A |--0---------------------|
E |--0---------------------|


[Verse 2]
    Em7       Em    F#m7
||:  /  /  /  /  |   /  /  /  /  :||[x2]

Em7              Em F#m7
    Can you feel it moving inside of you?
Em7             Em F#m7
    Can you let it go?
Em7                  Em   F#m7
    The purple ghost of England in winter time, 
Em7                Em  F#m7
     And who I used to know,
         Em7               F#m7
Blowing leaves, ...broken dreams,
         Em7               F#m7   Em7
Seven - teen,  ...dancing queen------,
         F#m7    Em7
Dancing queen-------! 


[Chorus]
Bm
 I----  sleep on a rainbow,
 Em7 *
Hiding from the wake of the tide,
Bm
 I----  am sleep on a rainbow,
 Em7 *
Hoping for the rest of the...

...ride---!
e |--0---------------|
B |--3------------3--|
G |--0-----0--2-4----|
D |--2--4------------|
A |--0---------------|
E |--0---------------|


[Verse 3]
Em7                       F#m7
 La-la-la-la-la-la-la-la, bwah,bwah,bwah,
Em7                       F#m7
Bwee,  wow -oo,  wow -oo, bwah, bwah, 
Em7
La-la-la-la-la-la-la-la,  bwah,bwah,bwah,
         Em7               F#m7
Blowing leaves, ...broken dreams,
         Em7               F#m7   Em7
Seven - teen,  ...dancing queen------,
         F#m7    Em7
Dancing queen-------!


[Chorus]
 Bm
 I----  sleep on a rainbow,
 Em7 *
Hiding from the wake of the tide,
 Bm
 I----  am sleep on a rainbow,
 Em7 *
Hoping for the rest of the ride!


[Chorus]
 Bm
 I----  am sleep on a rainbow,
 Em7 *
Hiding from the wake of the tide,
 Bm
 I----  am sleep on a rainbow,
 Em7 *
Hoping for the rest of the...

...ride---!
e |--0---------------|
B |--3------------3--|
G |--0-----0--2-4----|
D |--2--4------------|
A |--0---------------|
E |--0---------------|


[Coda - Repeats, then end on Bm]
    Bm                 Em7 *
e |----0--0----0--0--|---0--0----------------|
B |----3--3----3--3--|---3--3-------------3--|
G |----4--4----4--4--|---0--0-------0--2-4---|
D |----4--4----4--4--|---2--2--2--4----------|
A |--0-------0-------|-----------------------|
E |------------------|--0--------------------|            
Submit corrections

↑ Back to top | Tablatures and chords for acoustic guitar and electric guitar, ukulele, drums are parodies/interpretations of the original songs. You may use it for private study, scholarship, research or language learning purposes only