Home » A » America »

America - A Horse With No Name Tabs

Artists:  A B C D E F G H I J K L M N O P Q R S T U V W X Y Z # 

A Horse With No Name Tabs

(ver. 1) Click to play this song!
America
[Intro]     (2x)
   Em  +      +      +      +   D6/9 +      +      +
E|-----------------------------|---------------------------|
B|-----------------------------|-----0------0------0-------|
G|-----0------0------0------0--|-----2------2------2-------|
D|--------2-------------2------|--------0-------------0----|
A|---------------2-------------|---------------0-----------|
E|-0---------------------------|-2-------------------------|
                                                      On the
 
[Verse]
   Em  +      +           +  D6/9 +      +      +     Esus4 +      +      +      +  D6/9 +      +      +
E|--------------------------|-------------------------|----------------------------|-------------------------|
B|-0------0------0--------0-|-----0-------------------|-0---0------0-------------0-|-------------------------|
G|-----0------0-------2-----|-----2------2------2-----|--------2----------2--------|-----2------2------2-----|
D|--------2-----------2-----|--------0-------------0--|--------2-------------2-----|--------0-------------0--|
A|---------------2----------|---------------0---------|---------------2------------|---------------0---------|
E|-0------------------------|-2-----------------------|-0--------------------------|-2-----------------------|
   first  part   of   the journey               I was   looking at all    the    life               There were
 
   Esus4    +      +        D6/9     +      +       Esus4     +     +       +   D6/9 +      +      +
E|------------------------|------------------------|---------------------------|--------------------------|
B|-0--------0-------------|-0--------0-------------|-0--------0-------------0--|--------------------------|
G|------2----------2------|------2----------2------|------2----------2---------|-----2------2------2------| 3x
D|------2-------------2---|------0-------------0---|------2-------------2------|--------0-------------0---|
A|-------------2----------|-------------0----------|-------------2-------------|---------------0----------|
E|-0----------------------|-2----------------------|-0-------------------------|-2------------------------|
   plants and birds and     rocks and things, There was sand and hills and rings                   The
   first thing I met was a  fly with a buzz, And the sky      with   no     clouds.                The
   heat was hot   and the   ground was dry, But the  air was full    of     sound.                 I've
 
[Chorus]
   Em  +      +     +      +  D6/9 +      +     +       Em  +      +     +      +  D6/9 +      +     +
E|-0------0---0-----0--------|------------------------|-0------0---0-----0--------|------------------------|
B|-0------0---0-----0--------|-3--p0---------------0--|-0------0---0-----0--------|-3--p0------------------|
G|-----0-------------------0-|-----2------2-----2-----|-----0-------------------0-|-----2------2-----2-----|
D|--------2------------2-----|--------0------------0--|--------2------------2-----|--------0------------0--|
A|--------------2------------|--------------0---------|--------------2------------|--------------0---------|
E|-0-------------------------|-2----------------------|-0-------------------------|-2----------------------|
 been through the desert on a horse with no name, It felt good to be out of the     rain.            In the
 
   Em  +      +     +      +  D6/9 +      +     +       Em  +      +      +      +  D6/9 +      +     +
E|-0---0------------0--------|------------------------|-0------0------0------0-----|------------------------|
B|-0----------------0--------|-3--p0---------------0--|-0------0------0------0-----|-3--p0------------------|
G|------------0------------0-|-----2------2-----2-----|-----0------0------0------0-|-----2------2-----2-----|
D|--------2------------2-----|--------0------------0--|--------2-------------2-----|--------0------------0--|
A|--------------2------------|--------------0---------|---------------2------------|--------------0---------|
E|-0-------------------------|-2----------------------|-0--------------------------|-2----------------------|
   desert           you can re-member your name, 'Cause there ain't no one for to    give you no pain.
 
[Post-Chorus]   (2x)
   Em  +      +     +      + Dm6/11 +      +     +        Em  +      +     +      +  D6/9 +      +     +
E|-0------------3----------2-|-----p0-------------------|-0------------3----------0-|------------------------|
B|-0------------0----------0-|---------3---3----p0--3---|-0------------0----------3-|------------------------|
G|-----0------0-----0--------|------2------------2------|-----0------0-----0--------|-----2------2-----2-----|
D|--------2------------2-----|---------0------------0---|--------2------------2-----|--------0------------0--|
A|--------------2------------|---------------0----------|--------------2------------|--------------0---------|
E|-0-------------------------|-2------------------------|-0-------------------------|-2----------------------|
   laa          laa        la      la-la-la     la-la    la           laa-       laa.
 
[Verse]         (3x)
   Em  +      + Em9 +      +  D6/9 +      +     +      Esus4 +      +     +      + Dm6/11 +      +     +
E|------------------2--------|-------------------------|-------------------------2-|-------------------------|
B|-0------0---------0--------|-0----------0------------|-0---0--0-----0----------0-|-------------------------|
G|-----0------0------------0-|-----2------------2------|------------2-----2--------|------2------2-----2-----|
D|--------2------------2-----|--------0------------0---|--------2------------2-----|---------0------------0--|
A|--------------2------------|--------------0----------|--------------2------------|---------------0---------|
E|-0-------------------------|-2-----------------------|-0-------------------------|-2-----------------------|
After two days      in the     desert     sun My         skin began to turn      red.                 After
   three days       in the     desert     fun   I was    looking at a river      bed.                 And the
   story it   told  of a       river that flowed Made me sad to think it was     dead.           You see, I've
 
[Chorus]
   Em9 +      +     +      +  D6/9 +      +     +        Em9 +      +     +      +  D6/9 +      +     +
E|-2------2---2-----2--------|-------------------------|-2------2---2-----2--------|-------------------------|
B|-0------0---0-----0--------|-3--p0---------------0---|-0------0---0-----0--------|-3--p0-------------------|
G|-----0-------------------0-|-----2------2-----2------|-----0-------------------0-|-----2------2-----2------|
D|--------2------------2-----|--------0------------0---|--------2------------2-----|--------0------------0---|
A|--------------2------------|--------------0----------|--------------2------------|--------------0----------|
E|-0-------------------------|-2-----------------------|-0-------------------------|-2-----------------------|
 been through the desert on a horse with no name, It felt good to be out of the     rain.            In the
 
   Em9 +      +     +      +  D6/9 +      +     +        Em9 +      +     +      +  D6/9 +      +     +
E|-2---2------------2--------|-------------------------|-2------2-----2------2-----|-------------------------|
B|-0----------------0--------|-3--p0---------------0---|-0------0-----0------0-----|-3--p0-------------------|
G|------------0------------0-|-----2------2-----2------|-----0------0-----0------0-|-----2------2-----2------|
D|--------2------------2-----|--------0------------0---|--------2------------2-----|--------0------------0---|
A|--------------2------------|--------------0----------|--------------2------------|--------------0----------|
E|-0-------------------------|-2-----------------------|-0-------------------------|-2-----------------------|
   desert           you can re-member your name, 'Cause there ain't no one for to    give you no pain.
 
[Post-Chorus]   (2x)        ... as above ...
 
[Verse]         (4x)        ... as above ...
After nine days I let the horse run free, 'Cause the desert had turned to sea
There were plants and birds and rocks and things, there was sand and hills and rings
The ocean is a desert with it's life underground, And a perfect disguise above
Under the cities lies a heart made of ground, But the humans will give no love
 
[Chorus]                    ... as above ...
 
[Post-Chorus]   (2x)        ... as above ...
            
Submit corrections

↑ Back to top | Tablatures and chords for acoustic guitar and electric guitar, ukulele, drums are parodies/interpretations of the original songs. You may use it for private study, scholarship, research or language learning purposes only