Home » A » Amanda Palmer »

Amanda Palmer - Lost Tabs

Artists:  A B C D E F G H I J K L M N O P Q R S T U V W X Y Z # 

Lost Tabs

(ver. 1) Click to play this song!
Amanda Palmer
C, CMadd9(C 5th Fret), C (10th Fret), F,  made up chord, made up chord, C     x2 


G|---------------------------------------------------------------------------|
C|---------------------------------------------------------------------------|
E|---------------------------------------------------------------------------|
A|--3--3--3--5--5--5--10--10--10--10--10--10--10-----------------------------|

G|-----------3--3--3--4--4--4--4--4------------------------------------------|
C|--1--1--1--1--1--1--1--1--1--1--1------------------------------------------|
E|---------------------------------------------------------------------------|
A|--2--2--2--2--2-----2--2--2--2--2------------------------------------------|
            
Submit corrections

↑ Back to top | Tablatures and chords for acoustic guitar and electric guitar, ukulele, drums are parodies/interpretations of the original songs. You may use it for private study, scholarship, research or language learning purposes only