» » »

Amanda Cook - You Make Me Brave Tabs

Artists:  A B C D E F G H I J K L M N O P Q R S T U V W X Y Z # 

You Make Me Brave Tabs

(ver. 1) Click to play this song!
Amanda Cook
 Rating:
2.3/5 (27 votes)

 You Make Me Brave  lessons Tabs too difficult? Try these video lessons and learn fast
 
                Tuning: Standard
Key of D

This is a tab for the lead guitar.

Intro (2x)

e|----14----------14------------17----------------------------------------------|
B|--15--17------15--17-15-----15------------------------------------------------|
G|14----------14---------14-14--------------------------------------------------|
D|------------------------------------------------------------------------------|
A|------------------------------------------------------------------------------|
E|------------------------------------------------------------------------------|

Verse 1(Start after the phrase "I have heard" in the verse)

e|---------------------------------------------------------------------------|
B|---------------------------------------------------------------------------|
G|---------------------------------------------------------------------------|
D|9(16x)-7(16x)-9(16x)-5(16x)------------------------------------------------|
A|---------------------------------------------------------------------------|
E|---------------------------------------------------------------------------|

Chorus (2x) On the second time through play the last note of the chorus (9th fret) only once.

e|---------------------------------------------------------------------------|
B|---------------------------------------------------------------------------|
G|7(12x)-14(20x)-12(5x)-11(6x)-14(4x)-12(3x)-11(2x)-9(8x)--------------------|
D|---------------------------------------------------------------------------|
A|---------------------------------------------------------------------------|
E|---------------------------------------------------------------------------|

Intro

Verse 2

e|---------------------------------------------------------------------------|
B|---------------------------------------------------------------------------|
G|---------------------------7(3x)-6(2x)-------------------------------------|
D|9(16x)-7(16x)-9(16x)-7(16x)-----------9(16x)-7(16x)-5(8x)-7(8x)-9(8x)-11(8x|
A|---------------------------------------------------------------------------|
E|---------------------------------------------------------------------------|

Chorus- Repeat multiple times

Bridge- Listen for when to play and repeat throughout the bridge.

e|----14--------14--------14--------14-17------------------------------------|
B|--15--17----15--17----15--17----15-----------------------------------------|
G|14--------14--------14--------14-------------------------------------------|
D|---------------------------------------------------------------------------|
A|---------------------------------------------------------------------------|
E|---------------------------------------------------------------------------|            
Submit corrections


        You Make Me Brave  lessons Hard to play? Try these video lessons and learn fast You Make Me Brave  lessons
        
↑ Back to top | Tablatures and chords for acoustic guitar and electric guitar, ukulele, drums are parodies/interpretations of the original songs. You may use it for private study, scholarship, research or language learning purposes only