Home » A » Alvin And The Chipmunks »

Alvin And The Chipmunks - Shake Your Groove Thing Bass

Artists:  A B C D E F G H I J K L M N O P Q R S T U V W X Y Z # 

Shake Your Groove Thing Bass

(ver. 1) Click to play this song!
Alvin And The Chipmunks
-------------------------------------------------------------------------------
			     SONG NAME - Band Name
-------------------------------------------------------------------------------


Tuning: EADG

 Main Riff;  0:07

G|----------4-------------------------------------4---4---|
D|--------------------------------------------------------|
A|--2--2--2---24-5--5--5--4/7--7--7--7--7--7--1-2---x-----|
E|--------------------------------------------------------|
    S       P S  S         S   S              S S P S P


  Bridge: 2:28

G|---------------------------------------------------------|
D|-------------9--------------------------7----------------|
A|--7--7--7--7----6--6--6--6\---5--5--5--5-----------------|
E|--------------------------------------------9--9--9--9\--|
    S          P  S            S              S

G|------------------------------------------|
D|------------------------------------------|
A|------------------------------------------|
E|--2-2-2-2-2-2-2-2-2-2-2-2-2-2-2-2-2/0~----| Back to Main Riff
    S S                             S
            
Submit corrections

↑ Back to top | Tablatures and chords for acoustic guitar and electric guitar, ukulele, drums are parodies/interpretations of the original songs. You may use it for private study, scholarship, research or language learning purposes only