Home » A » Alvin And The Chipmunks »

Alvin And The Chipmunks - Follow Me Now Tabs

Artists:  A B C D E F G H I J K L M N O P Q R S T U V W X Y Z # 

Follow Me Now Tabs

(ver. 1) Click to play this song!
Alvin And The Chipmunks
-------------------------------------------------------------------------------
			     Follow me now – Alvin and the chipmunks
-------------------------------------------------------------------------------

Tuning: Dropped D can also use standard but this tab is dropped D	

		
Here just repeat as needed lol…	

acoustic

e|-------------------------------------|
B|-------------------------------------|
G|-------------------------------------|
D|-------------------------------------|
A|-2-2-x-x-6-6-x-x-7-7-x-x-7-7-x-x-----|
D|-2-2-x-x-6-6-x-x-7-7-x-x-7-7-x-x-----|

acoustic

e|--------------------------------------------------------------------|
B|--------------------------------------------------------------------|
G|--------------------------------------------------------------------|
D|-----------------6-6-6-6--------------------------------------------|
A|-2-2-2-2-6-6-6-6-4-4-4-4-7-7-7-7-4-4-4-4-4-4-4-4-7-7-7-7-7-7-7------|
D|-2-2-2-2-6-6-6-6---------7-7-7-7-4-4-4-4-4-4-4-4-7-7-7-7-7-7-7------|

distortion

e|--------------------------------------------------------------------------|
B|--------------------------------------------------------------------------|
G|--------------------------------------------------------------------------|
D|-2-2-2-2-2-2-2-2-7-7-7-7—7-7-7-7-4-4-4-4-4-4-4-4-6-7-7-7-7-7-7-7-7-7------|
A|-2-2-2-2-2-2-2-2-7-7-7-7-7-7-7-7-4-4-4-4-4-4-4-4-6-7-7-7-7-7-7-7-7-7------|
D|-2-2-2-2-2-2-2-2-7-7-7-7-7-7-7-7-4-4-4-4-4-4-4-4-6-7-7-7-7-7-7-7-7-7------|

e|-------------------------------------------|
B|-------------------------------------------|
G|-------------------------------------------|
D|-2-2-2--2-2-2--7-7-7--7-7-7----------------| repeats alot then
A|-2-2-2--2-2-2--7-7-7--7-7-7----------------|
D|-2-2-2--2-2-2--7-7-7--7-7-7----------------|	

e|--------------------------------------------------------------|
B|--------------------------------------------------------------|
G|--------------------------------------------------------------|
D|-4-4-4-4-4-4-4-4--7--7-7--7--7--------------------------------|
A|-4-4-4-4-4-4-4-4--7--7-7--7--7--------------------------------|
D|-4-4-4-4-4-4-4-4--7--7-7--7--7--------------------------------|
            
Submit corrections

↑ Back to top | Tablatures and chords for acoustic guitar and electric guitar, ukulele, drums are parodies/interpretations of the original songs. You may use it for private study, scholarship, research or language learning purposes only