Home » A » Al Stewart »

Al Stewart - Merlins Time Tabs

Artists:  A B C D E F G H I J K L M N O P Q R S T U V W X Y Z # 

Merlins Time Tabs

(ver. 1) Click to play this song!
Al Stewart
Intro
Part A

|-----------5--8--7--5-----5-----3-----------0--1--0-----------|
|--5--5--8--5-----8-----8-----5--3--3--3--------------3--------|
|-----7-----5-----7--------5-----4--------2--------------2-----|
|--------------------------------------0--------------------0--|
|--------------------------0--------------------0--------------|
|-----------------0--------------0-----------------------------|


|--0--3--5--5-----3----------|
|--0--3-----5--5--3--3--3--1-|
|-----------4--------2--4----| -> To Part B (1st time)
|-----------------------3----| -> To Part C (2nd time)
|----------------------------|
|-----------0----------------|

Part B

|------------------------|
|------0--1--0-----------|
|-2--------------2-------| -> Back to Part A
|----2--------------2----|
|-0--------------------0-|
|---------0--------------|

Part C

|-------------------------------------|
|--------0--1--0--------------0--1----|
|--2--------------2-----------------2-|
|-----2--------------2-----2----------|
|--0--------------------0-------------|
|-----------0-------------------------|


       Am           G
And I think of you now
       F           Em       Dm
As a dream that I had long ago
       C      F       G
In a kingdom lost to time
        Am         G
In the forest of evening
     F         Em        Dm
The archer is bending a bow
       C      F         G         E     
And I see you bring him bread and wine


Other verse on the same model...


Em            Am        G     Am    
Oh who would walk the stoney roads
    G        Dm
Of Merlin's time
Em            Am    G         Dm    Am
And keep the watch along the borderline
Em            Am         G       Am
And who would hear the legends passed
    G        Dm
In song and rhyme
Em        Am      G        Dm       Am
Upon the sheperd pipes of Merlin's time.


Repeat intro
            
Submit corrections

↑ Back to top | Tablatures and chords for acoustic guitar and electric guitar, ukulele, drums are parodies/interpretations of the original songs. You may use it for private study, scholarship, research or language learning purposes only