» » »

Alligatoah - Lass Liegen Tabs

Artists:  A B C D E F G H I J K L M N O P Q R S T U V W X Y Z # 

Lass Liegen Tabs

(ver. 1) Click to play this song!
Alligatoah
 Rating:
4.3/5 (13 votes)

 Lass Liegen  lessons Tabs too difficult? Try these video lessons and learn fast
 
                Tuning: Drop D

INTRO

Riff 1:
Rhythm guitar
e|-------------------------------------------|
B|---10---10---10---10---10---10-------------|   
G|-7----7----7----7----7----7----------------|  x4
D|--------------------------------7---7---7--|
A|--------------------------------7---7---7--|
D|--------------------------------7---7---7--|
  |-------------P.M.------------|

At the fourth time, the lead guitar tremolo slides down and up the G string.

VERSE 1

Riff 1 (x4)

Riff 2:
Rhythm guitar
e|-----------------------------------------|
B|---10---10---10---10---10---10---10---10-|
G|-7----7----7----7----7----7----7----7----|
D|-----------------------------------------| x4
A|-----------------------------------------|
D|-----------------------------------------|
  |---------------P.M.--------------------|

Riff 3:
Lead guitar
e|-------------------------3-3-3-3-------------------------5-5-5-5-|
B|-3-3-3-3-5-5-5-5-6-6-6-6---------3-3-3-3-5-5-5-5-6-6-6-6---------|
G|-----------------------------------------------------------------|
D|-----------------------------------------------------------------|
A|-----------------------------------------------------------------|
D|-----------------------------------------------------------------|
  |-----------------------------P.M.------------------------------|
                                                                           
e|-5-5-5-5-6-6-6-6-8-8-8-8-10-10-10-10-11-11-11-11-17~-|
B|-----------------------------------------------------|
G|-----------------------------------------------------|
D|-----------------------------------------------------|
A|-----------------------------------------------------|
D|-----------------------------------------------------|
  |----------------------P.M.---------------------|           x2

Riff 4:
Rhythm Guitar
e|-------------------------------------------------------------------|
B|-------------------------------------------------------------------|
G|-------------------------------------------------------------------|
D|---------------------------5-5-5-5-------------------------7-7-7-7-|
A|-5-5-5-5-7-7-*7*---8-8-8-8---------5-5-5-5-7-7-7-7-8-8-8-8---------|
D|-------------------------------------------------------------------|

e|-------------------------------------------------|
B|---------------------------------5-5-5-5-6-6-6-6-|
G|-----------------5-5-5-5-7-7-7-7-----------------|
D|-7-7-7-7-8-8-8-8---------------------------------|
A|-------------------------------------------------|
D|-------------------------------------------------|


CHORUS

Riff 5:
Rhythm Guitar
e|-----------------------------------------------------------------|
B|-----------------------------------------------------------------|
G|-7-7-7-7-7-7-7---2-2-2-2-2-2-2-------------------5-5-5-5-5-5-5---|
D|-7-7-7-7-7-7-7---2-2-2-2-2-2-2---3-3-3-3-3-3-3---5-5-5-5-5-5-5---|  x2
A|-5-5-5-5-5-5-5---0-0-0-0-0-0-0---3-3-3-3-3-3-3---3-3-3-3-3-3-3---|
D|---------------------------------3-3-3-3-3-3-3------------------|

e|-----------------------------------------------------------------|
B|-----------------------------------------------------------------|
G|-7-7-7-7-7-7-7---3-3-3-3-3-3-3-------------------5-5-5-5-5-5-5---|
D|-7-7-7-7-7-7-7---3-3-3-3-3-3-3---3-3-3-3-3-3-3---5-5-5-5-5-5-5---|  x2
A|-5-5-5-5-5-5-5---1-1-1-1-1-1-1---3-3-3-3-3-3-3---3-3-3-3-3-3-3---|
D|---------------------------------3-3-3-3-3-3-3------------------|

VERSE BRIDGE

Riff 1  x2

At the second time, the lead guitar tremolo slides down and up the G string.

VERSE 2

Same as verse 1, with two differences:

Riff 4:
Rhythm Guitar
e|-----------------------------------------------------------------|
B|-----------------------------------------------------------------|
G|-----------------------------------------------------------------|
D|-------------------------5-5-5-5-------------------------7-7-7-7-|
A|-5-5-5-5-7-7-7-7-8-8-8-8---------5-5-5-5-7-7-7-7-8-8-8-8---------|
D|-----------------------------------------------------------------|

e|-------------------------------------------------|
B|---------------------------------5-5-5-5-6-6-6-6-|
G|-----------------5-5-5-5-7-7-7-7-----------------|
D|-7-7-7-7-8-8-8-8---------------------------------|
A|-------------------------------------------------|
D|-------------------------------------------------|

Riff 3:
Lead Guitar

leave out the very last tone before the chorus:
e|-------------------------3-3-3-3-------------------------5-5-5-5-|
B|-3-3-3-3-5-5-5-5-6-6-6-6---------3-3-3-3-5-5-5-5-6-6-6-6---------|
G|-----------------------------------------------------------------|
D|-----------------------------------------------------------------|
A|-----------------------------------------------------------------|
D|-----------------------------------------------------------------|
  |-----------------------------P.M.------------------------------|
                                                                           
e|-5-5-5-5-6-6-6-6-8-8-8-8-10-10-10-10-11-11-11-11-|
B|-------------------------------------------------|
G|-------------------------------------------------|
D|-------------------------------------------------|
A|-------------------------------------------------|
D|-------------------------------------------------|
  |----------------------P.M.---------------------|           

CHORUS

same as before

BREAKDOWN

Riff 6:
Rhythm Guitar
e|------------------------------------------------------------|
B|------------------------------------------------------------| 
G|------------------------------------------------------------|
D|-0-----0---0---0----------------------------0-----0---0---0-|
A|-0-----0---0---0--7-7-7--5-5-5--3-3-3-3-2-2-0-----0---0---0-|  x6
D|-0-----0---0---0--7-7-7--5-5-5--3-3-3-3-2-2-0-----0---0---0-|
                   |-----------P.M.----------|

I couldn't figure out that little high lead lick at the end of the riff, sorry. But if you know it, please
feel free to let us all know!

CHORUS BRIDGE

Riff 1

The lead guitar plays this right before the chorus kicks in again:

Riff 7:
Lead Guitar 
e|---------------------------------|
B|---------------------------------|
G|---------------------------------|
D|-2-2-2-2-2-2-2-2-3-3-3-3-3-3-3-3-|
A|---------------------------------|
D|---------------------------------|
  |-------------P.M.--------------|

CHORUS

same as before            
Submit corrections


        Lass Liegen  lessons Hard to play? Try these video lessons and learn fast Lass Liegen  lessons
        
↑ Back to top | Tablatures and chords for acoustic guitar and electric guitar, ukulele, drums are parodies/interpretations of the original songs. You may use it for private study, scholarship, research or language learning purposes only