Home » A » Alison Krauss »

Alison Krauss - The Lucky One (picked) Tabs

Artists:  A B C D E F G H I J K L M N O P Q R S T U V W X Y Z # 

The Lucky One (picked) Tabs

(ver. 1) Click to play this song!
Alison Krauss
Alison Krauss  -  The Lucky One  (intro)



This isn't exactly what's being played on the recording, this is just my take
on it....kinda my own fingerpicking bit, following the original melody.

Capo on 1st fret to play along with the original.

************************************************************************************


   A                E                F#m             D

E------------------------------------------------------------0h2-------
B--2---2--3\2-0-----0---0--2p0-----------------------3----3------3-----
G----2----------0-----1--------2-1---2---2-4p2----------2----------2---
D---2---2----2---2---2---2----2---2----4-------6-4---0-0-0-0-0--0-0-0--
A--0--0---0----0-------2--------2-----4---4---4---4--------------------
E-------------------0------0---------2--2--2----2----------------------


   A                E                D/F#               A 

E---------------------------------------------2---------------5----|
B--2---2--3\2-0-----0---0--2p0------------3-------3-----2---2------|
G----2----------0-----1--------2-1---2------2---2---2-----2--------|
D---2---2----2---2---2---2----2---2--2h4-4-4-4-4-4-4-4---2---2-----|
A--0--0---0----0-------2--------2-----------------------0--0---0---|
E-------------------0-----0----------------------------------------|


            
Submit corrections

↑ Back to top | Tablatures and chords for acoustic guitar and electric guitar, ukulele, drums are parodies/interpretations of the original songs. You may use it for private study, scholarship, research or language learning purposes only