Home » A » Alison Krauss »

Alison Krauss - Paper Airplane Tabs

Artists:  A B C D E F G H I J K L M N O P Q R S T U V W X Y Z # 

Paper Airplane Tabs

(ver. 1) Click to play this song!
Alison Krauss


TablEdited by RankXerox

DADGBe
Capo II

La tab

Intro
 Bm                               A /C#
 |       |       |       |        |       |       |       |        
|--------------------------------|0-----------0-------------------|
|3-----------3-------------------|--------------------------------|
|----4---------------4-------4---|--------2-----------2-----------|
|--------4---------------4-------|------------------------2-------|
|2---------------2---------------|4-------------------------------|
|--------------------------------|--------------------------------|
 
 |       |       |       |        |       |       |       |        
|--------------------------------|--------------------------------|
|--------------------2-----------|3-----------3-------------------|
|------------2-------------------|--------------------0-------0---|
|--------2---------------2-------|--------0---------------0-------|
|0---------------0---------------|--------------------------------|
|--------------------------------|5---------------5---------------|
 
 |       |       |       |        |       |       |       |        
|--------------------------------|--------------------------------|
|--------------------------------|--------------------0-----------|
|--------------------------------|------------0-------------------|
|--------------------------------|--------2---------------2-------|
|--------------------------------|--------------------------------|
|5-------------------------------|2---------------2---------------|
 
 |       |       |       |        |       |       |       |        
|--------------------------------|--------------------------------|
|--------------------------------|--------------------------------|
|--------------------------------|--------------------------------|
|2h--4-----------2p--0-----------|4p--2-------2---------------2---|
|------------0---------------0---|--------0-----------0-----------|
|0-----------------------0-------|--------------------------------|

                                  Couplets (les 4 premiers)
 |       |       |       |        |       |       |       |        
|--------------------------------||--------------------------------|
|--------------------------------||------------3-------------------|
|--------------------------------||--------------------4-------4---|
|--------------------------------||--------4---------------4-------|
|0-------------------------------||2---------------2---------------|
|--------------------------------||--------------------------------|
 
 |       |       |       |        |       |       |       |        
|0-----------0-------------------|--------------------------------|
|--------------------------------|--------------------2-----------|
|--------2-----------2-----------|------------2-------------------|
|------------------------2-------|--------2---------------2-------|
|4-------------------------------|0---------------0---------------|
|--------------------------------|--------------------------------|
 
 |       |       |       |        |       |       |       |        
|--------------------------------|--------------------------------|
|3-----------3-------------------|--------------------------------|
|--------------------0-------0---|--------------------------------|
|--------0---------------0-------|--------------------------------|
|--------------------------------|--------------------------------|
|5---------------5---------------|5-------------------------------|
 
 |       |       |       |        |       |       |       |        
|--------------------------------|--------------------------------|
|--------------------0-----------|------------3-------------------|
|------------0-------------------|--------------------4-----------|
|--------2---------------2-------|--------4---------------4-------|
|--------------------------------|2---------------2---------------|
|2---------------2---------------|--------------------------------|
 
 |       |       |       |        |       |       |       |        
|--------------------------------|--------------------------------|[
|----------------2h--3-----------|2-------------------------------|[
|------------2-------------------|--------------------------------|[
|--------2---------------2-------|--------------------------------|[
|0---------------0---------------|0-------------------------------|[
|--------------------------------|--------------------------------|[
 

RX2011

Les accords

Intro
Bm x2443x        G6/B x422x0    A x0222x              G 5x003x
Em 2x200x        A x0222x


couplets x4
Bm x2443x        G6/B x422x0    A x0222x              G 5x003x
Em 2x200x        Bm x2443x       A x0222x


Dxx0232	     Bm x2443x       Em 2x200x
G 5x003x         A x0222x    
Dxx0232		    Bm x2443x       Em 2x200x
G 5x543x           A x02220    A#- x1x322   Bm x2443x


* solo mandoline  *
* solo guitare *  
et couplets x2
Bm x2443x        G6/B x422x0    A x0222x              G 5x003x
Em 2x200x        Bm x2443x       A x0222x 
Bm x2443x        G6/B x422x0    A x0222x              G 5x003x
Em 2x200x        Bm x2443x       A x0222x          Dxx0232   



Dxx0232	 Bm x2443x       Em 2x200x
G 5x003x            A x0222x
Dxx0232		    Bm x2443x       Em 2x200x
G 5x543x           A x02220    A#- x1x322  Bm x2443x

*solo slide guitare*
Bm x2443x        G6/B x422x0    A x0222x              G 5x003x
Em 2x200x        Bm x2443x       A x0222x      Dxx0232


Bm x2443x            G6/B x422x0
A x0222x            G 5x003x [pause]
Em 2x200x  Bm x2443x   A x0222x
Bm x2443x        G6/B x422x0
A x0222x        A#- x1x322  Bm x2443x    
Em 2x200x     Bm x2443x  G6/B x422x0    Dxx0232...


RX2011
            
Submit corrections

↑ Back to top | Tablatures and chords for acoustic guitar and electric guitar, ukulele, drums are parodies/interpretations of the original songs. You may use it for private study, scholarship, research or language learning purposes only