Home » A » Alison Krauss »

Alison Krauss - Happiness Tabs

Artists:  A B C D E F G H I J K L M N O P Q R S T U V W X Y Z # 

Happiness Tabs

(ver. 1) Click to play this song!
Alison Krauss
This is the guitar solo found in Happiness. I was in two minds
whether the first part was played further down the neck around
10 and 12, but it just didn't sound quite right like that. Here's
what it sounds like to me. Comments and corrections gratefully
accepted as always! Split into sections for easier learning should
you need it. Here we go:
                                                                ~~
||-----0-0-------------|-----0-4-1/2-0-------|----12----12-10-9-------|
||-1/2-----1/2-0-1/2---|---------------0/2-2-|-10----10---------10-12-|
||-------------------2-|-2-2-----------------|------------------------|
||---------------------|---------------------|------------------------|
||---------------------|---------------------|------------------------|
||---------------------|---------------------|------------------------|

|--------------12--------------------||
|------------9-10-9------------------||
|-------9-11--------11/9-9-----------||
|-11-12--------------------12-11p9-9-||
|------------------------------------||
|------------------------------------||

Key:
----

/ = slide up
~~ = vibrato
p = pull-off
            
Submit corrections

↑ Back to top | Tablatures and chords for acoustic guitar and electric guitar, ukulele, drums are parodies/interpretations of the original songs. You may use it for private study, scholarship, research or language learning purposes only