Home » A » Alison Krauss »

Alison Krauss - Broadway (capo) Tabs

Artists:  A B C D E F G H I J K L M N O P Q R S T U V W X Y Z # 

Broadway (capo) Tabs

(ver. 1) Click to play this song!
Alison Krauss
Standard tuning
Capo 1

  Q110
 4/4
  Gtr I
|-----|-------0-----2---|-3-----------------|
|-----|-----3-----------|-------------------|
|-----|---2-------2-----|-2h4-----2h4-2-0-4-|
|-----|-0-------0-----0-|-----0-0-----------|
|-0h2-|-----------------|-------------------|
|-----|-----------------|-------------------|


|-----------------|---------0---3p2---|
|-----------------|-------3---------3-|
|-2-----4-2p0---2-|-----2-------------|
|-----2-------5---|-2h4-------0-------|
|---0-------------|-------------------|
|-----------------|-------------------|


|-------5---3-2---|-3---2---0----0-|-----0-----------0-|-------0----------||
|-----3-----------|------------3---|-----0---------3---|------------------||
|-2-2-------------|-4---2---0------|-------2-----------|-----2------------||
|-0-------0-----0-|---0---0----4---|---2-------2S4-----|---2--------------||
|-----------------|----------------|-0-------0---------|-0-------0--(0)---||
|-----------------|----------------|-------------------|------------------||

            
Submit corrections

↑ Back to top | Tablatures and chords for acoustic guitar and electric guitar, ukulele, drums are parodies/interpretations of the original songs. You may use it for private study, scholarship, research or language learning purposes only