Home » A » Alison Krauss »

Alison Krauss - Bright Sunny South Tabs

Artists:  A B C D E F G H I J K L M N O P Q R S T U V W X Y Z # 

Bright Sunny South Tabs

(ver. 1) Click to play this song!
Alison Krauss
-----2-------0-----------------0---------2-------0----------
---------h--------p-p-------h-----------------h---------p---
-----0--2-4------4-2-0--0--2-4-----------0---2-4------4-2-0-
--2-----------------------------------2---------------------
---------------0------------------0-----------------0-------


------2---------
----------------
-0----2---------
------2---------
----------------
            
Submit corrections

↑ Back to top | Tablatures and chords for acoustic guitar and electric guitar, ukulele, drums are parodies/interpretations of the original songs. You may use it for private study, scholarship, research or language learning purposes only