» » »

Alison Krauss - A Living Prayer Tabs

Artists:  A B C D E F G H I J K L M N O P Q R S T U V W X Y Z # 

A Living Prayer Tabs

(ver. 1) Click to play this song!
Alison Krauss
 Rating:
4/5 (4 votes)

 A Living Prayer lessons Tabs too difficult? Try these video lessons and learn fast
 
                A requester asked for this, so I had a go. There are two
guitars, one playing this and the other playing the chords,
so it's pretty difficult to get this on the nose, but I'm
pretty darned sure it's close. Split into sections for
easier learning if you need it. Comments and corrections
gratefully accepted as always!


                           ----/
E||--0-2-4-5-4-2-0-0-----|---------0-----------------|
B||------------------0/2-|-2-2-2-3---3-3\2-2-0-------|
G||----------------------|---------------------2-1-2-|
D||----------------------|---------------------------|
A||----------------------|---------------------------|
E||----------------------|---------------------------|

                v n
E|--------5-----5-5-|-------0-------0--||
B|------2-----2-2-2-|-----0-------0----||
G|----2-----2-------|---2-------2------||
D|--2---------------|-2-------2--------||
A|------------------|------------------||
E|------------------|------------------||

Key:
----

/ = slide up
\ = slide down
----/ = crescendo (getting louder)
v = down pick stroke
n = upwards pick stroke
            
Submit corrections


        A Living Prayer lessons Hard to play? Try these video lessons and learn fast A Living Prayer lessons
        
↑ Back to top | Tablatures and chords for acoustic guitar and electric guitar, ukulele, drums are parodies/interpretations of the original songs. You may use it for private study, scholarship, research or language learning purposes only