» » »

Al Green - Love And Happiness Bass

Artists:  A B C D E F G H I J K L M N O P Q R S T U V W X Y Z # 

Love And Happiness Bass

(ver. 1) Click to play this song!
Al Green
 Rating:
4.2/5 (30 votes)

 Love And Happiness lessons Tabs too difficult? Try these video lessons and learn fast
 
                Intro

14 Bars Rest

|-----------------|-----------------|-----------------|-------------------|
|-9-----9-8---8-6-|-----------------|-9-----9-8---8-6-|-------------------|
|---7-7-----6-----|-----------------|---7-7-----6-----|-------------------|
|-----------------|---4---4---4-4-4-|-----------------|---4---4---4-4-2-3-|
  E E E E E E E E   E E E E E E E E   E E E E E E E E   E E E E E E S S E

Verse 1

|-----------------|---------------------|-------------------|-------------------|
|-9---------9---8-|-7-7-----------------|-------------------|-------------------|
|---------9-------|---------------------|-------------------|-------------------|
|---7---7---------|-------5-5-5-5-5-2-3-|-4-4---2-2-2---2-3-|-4-4---2-2-2---2-3-|
  E Q   E E Q   E   E Q   S S E E S S E   E Q   E E Q   S S   E Q   E E Q   S S

|-----------------|---------------------|---------------------|
|-----------------|---------------------|---------------------|
|-----------------|-5-4---2-2-2-2-2-----|-5-4---2-2-2-2-------|
|-4-4---2-2-2-2-2-|-----------------4-2-|---------------4-2-4-|
  E Q   E E E E E   E Q   S S E E S S E   E Q   E E E S S S S

Verse 2

|-------------------|---------------------|---------------------|---------------------|
|-------------9-9-8-|-7-7-----------------|---------------------|---------------------|
|-------6-7-9-------|---------------------|---------------------|---------------------|
|-7-7---------------|-------5-5-5-5-5-2-3-|-4-4---2-2-2-2-2-2-3-|-4-4---2-2-2-2-2-3-3-|
  E Q   S S E E E E   E Q   S S E E S S E   E Q   E E E S S S S   E Q   E E E S S S S

|-----------------|---------------------|---------------------|-----------------|
|-----------------|---------------------|---------------------|-----------------|
|-----------------|-5-4---2-2-2-2-2-----|-5-4---2---2-2-------|-5-4---2---2-4-6-|
|-4-4---2-2-2-2-2-|-----------------4-2-|---------------4-2-4-|-----------------|
  E Q   E E E E E   E Q   S S E E S S E   E Q   Q   E S S S S   E Q   Q   E E E

Chorus 1

|-----------------|-----------------|-----------------|-------------------|
|---9-------8---6-|-----------------|-9-------8---8-6-|-------------------|
|-8---7---6---6---|-----------------|---7-7-7---6-----|-------------------|
|-----------------|---4---4---4-4-4-|-----------------|---4---4---4-4-2-3-|
  E E Q   E E E E   E E E E E E E E   E E E E E E E E   E E E E E E E S S

Instrumental 1

|-----------------|-------------------|-------------------|-------------------|
|-----------------|-------------------|-------------------|-------------------|
|-------------2---|---------------2---|---------------2---|---------------2---|
|-4-4---2-4-4---4-|-4-4-2-2-3-4-4---4-|-4-4-2-2-3-4-4---4-|-4-4-2-2-3-4-4---4-|
  E Q   E E E E.S   E E.S S S E E E.S   E E.S S S E E E.S   E E.S S S E E E.S 

|-------------------|-------------------|-------------------|-------------------|
|-------------------|-------------------|-------------------|-------------------|
|---------------2---|---------------2---|---------------2---|---------------2---|
|-4-4-2-2-3-4-4---4-|-4-4-2-2-3-4-4---4-|-4-4-2-2-3-4-4---4-|-4-4-2-2-3-4-4---4-|
  E E.S S S E E E.S   E E.S S S E E E.S   E E.S S S E E E.S   E E.S S S E E E.S 

Chorus 2

|-----------------|-----------------|-----------------|-------------------|
|-9-------8---8-6-|-----------------|-9-------8---8-6-|-------------------|
|---7-7-----6-----|-----------------|---7-7-7---6-----|-------------------|
|-----------------|---4---4---4-2-3-|-----------------|---4---4---4-4-2-3-|
  E E Q   E E E E   E E E E E E E E   E E E E E E E E   E E E E E E E S S

Verse 3

|-----------------|---------------------|---------------------|---------------------|
|-----------9---8-|-7-7-----------------|---------------------|---------------------|
|---------9-------|---------------------|---------------------|---------------------|
|-7-7---7---------|-------5-5-5-5-2-3-2-|-4-4---2-2-2-2-2-2-3-|-4-4-4-2-2-2-2-2-3-3-|
  E Q   E E Q   E   E Q   E E E S S S S   E Q   E E E S S S S   E E.S E E E S S S S

|-----------------|-------------------|---------------------|-------------------|
|-----------------|-------------------|---------------------|-------------------|
|-----------------|-5-4---2---2-2-----|-5-4---2-2-2-2-------|-5-4---2---2-2-----|
|-4-4---2-2-2-2-2-|---------------4-2-|---------------4-2-4-|---------------2-3-|
  E Q   E E E E E   E Q   Q   E S S E   E Q   E E E S S S S   E Q   Q   E E S S

Chorus 3

|-----------------|-------------------|-------------------|-------------------|
|-----------------|-----------------6-|-------------------|-------------------|
|-------7-6-6-----|---------------6---|-7-7-7---6-6-------|-------------------|
|-4-4---------6-4-|---4---4-4-7-------|-------7-----6-4-4-|-4-4---4-4-4-4-2-3-|
  E Q   E E E E E   E E E E E Q   S S   E E E.S E E E S S   E Q   E E.S S S S

Intstrumental 2

|-------------------|---------------------|-------------------|-------------------|
|-------------------|---------------------|-------------------|-------------------|
|-------------2-----|---------------2-----|---------------2---|---------------2---|
|-4-4---2-4-4---4-4-|-4-4-2-2-3-4-4---4-4-|-4-4-2-2-3-4-4---4-|-4-4-2-2-3-4-4---4-|
  E Q   E E E E S S   E E.S S S E E E S S   E E.S S S E E E.S   E E.S S S E E E.S 

|-------------------|-------------------|-------------------|-------------------|
|-------------------|-------------------|-------------------|-------------------|
|---------------2---|---------------2---|---------------2---|---------------2---|
|-4-4-2-2-3-4-4---4-|-4-4-2-2-3-4-4---4-|-4-4-2-2-3-4-4---4-|-4-4-2-2-3-4-4---4-|
  E E.S S S E E E.S   E E.S S S E E E.S   E E.S S S E E E.S   E E.S S S E E E.S 

                                                                         x3
||------------------|-----------------|-----------------|------------------||
||o-----------------|-----------------|-----------------|-----------------o||
||o---------------2-|---------------2-|---------------2-|---------------2-o||
||--4-2-4-4-4-2-4---|-4-2-4-4-4-2-4---|-4-2-4-4-4-2-4---|-4-2-4-4-4-2-4----||
    E E E E E.S E E   E E E E E.S E E   E E E E E.S E E   E E E E E.S E E

|-----------------|-----------------|-----------------|-----------------|
|-----------------|-----------------|-----------------|-----------------|
|-2-------------2-|---------------2-|---------------2-|---------------2-|
|---4-2-4-4-2-4---|-4-2-4-4-4-2-4---|-4-2-4-4-4-2-4---|-4-2-4-4-4-2-4---|
  E E E E E.S E E   E E E E E.S E E   E E E E E.S E E   E E E E E.S E E

|-----------------|-----------------|-----------------|
|-----------------|-----------------|-----------------|
|---------------2-|---------------2-|-----------------|
|-4-2-4-4-4-2-4---|-4-2-4-4-4-2-4---|-4-2-4-4---------|
  E E E E E.S E E   E E E E E.S E E   E E E E H

Breakdown

13 Bars Rest

|-----------------|---------------------|
|-9---------------|---------------------|
|---7-7-7-6-6-----|---------------------|
|-------------4-4-|---4---4---4-4-6-2-4-|
  E E E E E E E E   E E E E E E S S S S

|-------------------|-------------------|-------------------|-------------------|
|-------------------|-------------------|-------------------|-------------------|
|---------------2---|---------------2---|---------------2---|---------------2---|
|-4-4-2-4-----4---2-|-4-4-2-4-----4---2-|-4-4-2-4-----4---2-|-4-4-2-4-----4---2-|
  E E E E E E.S S S   E E E E E E.S S S   E E E E E E.S S S   E E E E E E.S S S

Outro

|-------------------|-------------------|---------------------|-------------------|
|-------------------|-------------------|---------------------|-------------------|
|---------------2---|---------------2---|-------------2-2-----|-------------2-2---|
|-4-4-2-4-----4---2-|-4-4-2-4-----4---2-|-4-4-2-4---4-----2-3-|-4-4-2-4---4-----2-|
  E E E E E E.S S S   E E E E E E.S S S   E E E E E E S S S S   E E E E E E S S E

|-------------------|-------------------|-------------------|-------------------|
|-------------------|-------------------|-------------------|-------------------|
|-------------2-2---|-------------2-2---|-------------2-----|-------------2-----|
|-4-4-2-4---4-----2-|-4-4-2-4---4-----2-|-4-4-2-4---4---2-3-|-4-4-2-4---4---2-3-|
  E E E E E E S S E   E E E E E E S S E   E E E E E E E S S   E E E E E E E S S

                                                                     Repeat to fade
||--------------------|-------------------|-------------------|--------------------||
||o-------------------|-------------------|-------------------|-------------------o||
||o---------2---------|---------2---------|---------2---------|---------2---------o||
||--4-4-2-4---4-4-2-3-|-4-4-2-4---4-4-2-3-|-4-4-2-4---4-4-2-3-|-4-4-2-4---4-4-2-3--||            
Submit corrections


        Love And Happiness lessons Hard to play? Try these video lessons and learn fast Love And Happiness lessons
        
↑ Back to top | Tablatures and chords for acoustic guitar and electric guitar, ukulele, drums are parodies/interpretations of the original songs. You may use it for private study, scholarship, research or language learning purposes only