Home » A » Alex Turner »

Alex Turner - Stuck On A Puzzle Bass

Artists:  A B C D E F G H I J K L M N O P Q R S T U V W X Y Z # 

Stuck On A Puzzle Bass

(ver. 1) Click to play this song!
Alex Turner
Intro (Without Bass)  0:34.

Prechorus.

|-------------------------|---------------------------|----------------------------|
|-------------------------|---------------------------|----------------------------|
|-------------------------|---------------------------|----------------------------|
|-5--5-7---7-0---0-44---4-|5--5-7---7-0---0-4-0-2-4-|-5--5-77--7-0---0-4-0-2-4-----|

|-------------------------|
|-------------------------|
|-------------------------|
|--5------------7---------|

Chorus.

|-------------------------------------|
|-------------------------------------|    x2
|-------------------------------------|
| 0-0--0-77--4-2--2--0-2-4-5-7--------|

|-----------------------------------|--------------------------------|
|-----------------------------------|--------------------------------|
|------7----------------------------|--------------------------------|
| 0-0----9-7-5-4--2--2--0-2-4-5-7--|-0-0--0-77--4-2--2-0-222-4-0-----|


Vers 2.  1:25-1:45

Prechorus.
|-------------------------|--------------------------|----------------------------|
|-------------------------|--------------------------|----------------------------|
|-------------------------|--------------------------|----------------------------|
|-5--5-7---7-0---0-44---4|-5--5-7---7-0---0-4-0-2-4-|-5--5-77--7-0---0-4-0-2-4----|I

|-------------------------|
|-------------------------|
|-------------------------|
|--5---0-55----5---7-- ---|

Chorus.

|-------------------------------------|
|-------------------------------------|    x2
|-------------------------------------|
| 0-0--0-77--4-2--2--0-2-4-5-7--------|

|----------------------------------| ---------------------------------|
|----------------------------------|----------------------------------|
|------7---------------------------|----------------------------------|
| 0-0----9-7-5-4--2--2--0-2-4-5-7- |-0-0--0-77---4--2-2--0-2-4-5-7----|

|-------------------------------------|
|-------------------------------------|    x2
|-------------------------------------|
| 0-0--0-77--4-2--2--0-2-4-5-7--------|

|-----------------------------------|---------------------------|
|-----------------------------------|---------------------------|
|------7----------------------------|---------------------------|
| 0-0----9-7-5-4--2--2--0-2-4-5-7--|-0-0--0-77-7-5--5--4--------|

|-----------------------------------------|
|-----------------------------------------|
|-----------------------------------------|
|--7-7-7-7--5-5-5-5--4-4-4-4--2-2-2-2-----|

Repeat regular chorus once.
            
Submit corrections

↑ Back to top | Tablatures and chords for acoustic guitar and electric guitar, ukulele, drums are parodies/interpretations of the original songs. You may use it for private study, scholarship, research or language learning purposes only