» » »

Alexi Murdoch - Through The Dark Tabs

Artists:  A B C D E F G H I J K L M N O P Q R S T U V W X Y Z # 

Through The Dark Tabs

(ver. 1) Click to play this song!
Alexi Murdoch
 Rating:
2.4/5 (29 votes)

 Through The Dark  lessons Tabs too difficult? Try these video lessons and learn fast
 
                Tuning: DGDGBA


e|----------------------------------------------------------------|
B|----------------------------------------------------------------|
G|----------0h2-2-----------2---2-----------0h2-2-----------2---2-|
D|----0-------0-------0-------0-------0-------0-------0-------0---|
A|----------------------------------------------------------------|
E|0-------0-------0-------0-------0-------0-------0-------0-------|

e|----------------------------------------------------------------|
B|----------------------------------------------------------------|
G|----------0h2-2-----------2---2-----------0h2-2---2-------2---2-|
D|----0-------0-------0-------0-------0-------0-------0-------0---|
A|----------------------------------------------------------------|
E|0-------0-------0-------0-------0-------0-------0-------0-------|

e|--------------------------------------------------------------------------------|
B|--------------------------------------------------------------------------------|
G|----------0h2-2-----------0h2-2-----------2---2-----------0h2-2-----------2---2-|
D|----0-------0-------0-------0-------0-------0-------0-------0-------0-------0---|
A|0-------0-------0-------0-------------------------------------------------------|
E|--------------------------------0-------0-------0-------0-------0-------0-------|

  t i t  t i t i t
e|----------------------------------------------------------------|
B|----------------------------------------------------------------|
G|-------------2------------2---2-----------0h2-2-----------0h2-2-|
D|--2-2----2---------2----------------0-------0-------0-------0---|
A|2------2---2---2-------2----2---0-------0-------0-------0-------|
E|----------------------------------------------------------------|

e|----------------------------------------------------------------|
B|----------------------------------------------------------------|
G|----------2---2-----------0h2-2-----------0h2-2-----------2---2-|
D|----0-------0-------0-------0-------0-------0-------0-------0---|
A|----------------------------------------------------------------|
E|0-------0-------0-------0-------0-------0-------0-------0-------|

            
Submit corrections


        Through The Dark  lessons Hard to play? Try these video lessons and learn fast Through The Dark  lessons
        
↑ Back to top | Tablatures and chords for acoustic guitar and electric guitar, ukulele, drums are parodies/interpretations of the original songs. You may use it for private study, scholarship, research or language learning purposes only