» » »

Alexi Murdoch - Dream About Flying Tabs

Artists:  A B C D E F G H I J K L M N O P Q R S T U V W X Y Z # 

Dream About Flying Tabs

(ver. 1) Click to play this song!
Alexi Murdoch
 Rating:
4.2/5 (5 votes)

 Dream About Flying lessons Tabs too difficult? Try these video lessons and learn fast
 
                -------------------------------------------------------------------------------
      From "Time Without Consequence"
-------------------------------------------------------------------------------

Tuning: EADGBe
Alexi has it tuned down 1 half-step to
D#G#C#F#A#D#
but for simplicity's and conveniency's sake i'll keep the TAB in standard tuning
(note for beginners: the tuning above is the same as standard just one note lower per string)
This is a pretty difficult song and I would not recommend it to beginners.
Also, most of the notes on the lower strings are bass notes to be hit with your thumb, 
don't let them confuse you.
Lastly, you should use the TAB to get a basic idea of how to play it, and the song to 
get it straight (or suit it to your style).
Good luck.

Intro

e|----------------------------0-------------0-------------------0-------------|
B|---3b-----(3b)-------3b----------3b-------3---3b------3b2------------3b-----|
G|-------4-----------------4----------4-------------4--------4-------------4--|
D|---2-----------------2--------2--------2----2---------2----------2----------|
A|----------------------------------------------------------------------------|
E|----------------------------------------------------------------------------|

e|-------0---------------------------0------------------------------------------|
B|---------------3b-------3b---------3------0h2-----------0h2p0-------0---------|
G|-------------------4---------4--------------------2-------------2/4-----------|
D|---2------2-------------2-------2---------------------------------------------|
A|---------------------------------------0-------0-----0------------------------|
E|------------------------------------------------------------------------------|

e|------------------0-----------------------------------------------------------|
B|------3b----------3-------3b--------------------------------------------------|
G|------4--4----------------4----4-----REPEAT-----------------------------------|
D|------------------------------------------------------------------------------|
A|------------------------------------------------------------------------------|
E|--0---------0-0--------0------------------------------------------------------|

e|------------------------------------------------------------------------------|
B|------3b------------------------0------------------------------------3b-------|
G|---------4---------4-------------------------4--------------------------4-----|
D|--------------------------4-----------4-------------4------4------------------|
A|-------------0h2------2------2-----2-----2------2------2----------------------|
E|---0--------------------------------------------------------------0-----------|

Back to Main Riff

Verse

e|--------------0------------------------------0-------------0-------------0---------|
B|----3b--------3---------2--------2-----------3-----3b------3----3b-----------------|
G|--------4-----4-------------2--------2-------4--------4---------4----4-------------|
D|----2---------------------2--------2-----------------------------------------------|
A|---------------------0---------0---------------------------------------------------|
E|-0---------0-----0---------------------0--------0--------0----0--------0-----0-----|
                Pale   light    this     morning

e|------------0------------------------------------------0---------------0---------|
B|---3b-------3-----------2----------2----------3b-------3----3b-------------------|
G|---4--------4----------------2---------2---------4----------4----4---------------|
D|--------------------------2----------2-------------------------------------------|
A|---------------------0----------0------------------------------------------------|
E|--------0--------0-------------------------0--------0-----0---------0-----0------|
            woke                             me

e|------------0----------------------------------------------------0---------------|
B|----3b------3---------2----------2--------2-----------3b---------3---------------|
G|----4-------4--------------2----------2-------2-------4---4----------------------|
D|------------------------2----------2--------2------------------------------------|
A|-------------------0----------0---------0----------------------------------------|
E|---------0-----0----------------------------------0----------0-------------------|
               slow   pain                  i     feel

e|-------------------------------------------------------------------0--------------|
B|-------0-----------0-----------0-----------0------------3b--------------3b--------|
G|-----------4------------4----------4------------4-------4---4---------------4-----|
D|--------4------------4-----------4-----------4------------------------------------|
A|---2------------2-----------2-----------2-----------------------------------------|
E|-----------------------------------------------------0----------0-----0-----------|
    will not                  let me                   be

Break after "so much easier to lie"
e|--------------3------------------------------------------------------------------|
B|------3/5-----5-----5\3-----2h3------3p2p0---------------------------------------|
G|------2/4-----------4-------2---------------2------------------------------------|
D|------------------------------------------------------REPEAT---------------------|
A|-------------------------0--------0----------------------------------------------|
E|---0-------0-----0-----------------------------0-0-------------------------------|

e|--------------3------------------------------------0-------------------------------|
B|------3/5-----5-----5\3-----2h3------2h3p2p0--------------------------3b-----------|
G|------2/4-----------4-------2-----------------2---------------4-------------4------|
D|------------------------------------------------------------4----4-----------------|
A|-------------------------0--------0-------------0-----0h2--------------------------|
E|---0-------0-----0-------------------------------------------------0---------------|

e|----------------------0---------------------------------------------------------|
B|-------------------3---------------2h3-----------2h3-----------3----2h3--3------|
G|----------4--------------4-----------------4----------4-------------------------|
D|--------4---4-------------------2------2-------------------2-----2--------------|
A|---0h2--------------------------------------------------------------------------|
E|---------------0------------0------------------0---------0----------------------|

e|---------------------0-----0----------------------------0------------------------|
B|-----2--------2h3---------------2------------2----3---------3---2----------------|
G|---------4----------------------------4------------------------------------------|
D|--2---2----2------2----2-----0----2------2-----2----2----2---2----2--------------|
A|---------------------------------------------------------------------------------|
E|---------------------------------------------------------------------------------|

e|-------3------3------3-----------------3-----3-----3-------------------0-----------|
B|-------2------2------2-----------------2-----2-----2---------3b-------------3b-----|
G|-------4------4------4--GROW LOUDER----4-----4-----4-----2\4-----4-------------4---|
D|-----------------------------------------------------------------------------------|
A|-----------------------------------------------------------------------------------|
E|--0--------0------0-----------------------0------0----0-------------0-----0--------|
Back to verse

Outro

e|--------------------------------------0----------------------------------------|
B|--------------------------------0----------3-----------------------------------|
G|-------2-----------------------------------------------------------------------|
D|---2h4--------4------0----2-----------------------REPEAT-----------------------|
A|----------0-------0------------------------------------------------------------|
E|------------------------0----0-----0----0-----0--------------------------------|

e|-----------------------------------------------------------------------------|
B|--------------0h3------------------------0h3---------------------------------|
G|--------2-------------2------------2-------------2---------------------------|
D|---2h4-----------------------2h4---------------------REPEAT------------------|
A|-----------2-------0------2-----------2-------0------------------------------|
E|-----------------------------------------------------------------------------|

e|--------------------------------------------------------------------0---------|
B|--------0h3b-----0h3b-----0h3b----0h3b-----0h3b-----0h3b-----------0----------|
G|-----------------------------------------------------------2h4----------------|
D|---2h4-------2h4------2h4-----2h4------2h4------2h4---------------2-----------|
A|------------------------------------------------------------------------------|
E|-----------------------------------------------------------------0------------|
Note: last chord is an "Eno3rd". play the tabbed chord by fingerpicking each note with 
your thumb, index, middle, and ring finger in quick succession.


A helpful video which coincidentally is by me...

************************************

| /   slide up
| \   slide down
| h   hammer-on
| p   pull-off
| ~   vibrato
| +   harmonic
| x   Mute note
| b   Bend
| pb  Pre-bend
| br  Bend release
| pbr Pre-bend release
| brb Bend release bend

************************************
            
Submit corrections


        Dream About Flying lessons Hard to play? Try these video lessons and learn fast Dream About Flying lessons
        
↑ Back to top | Tablatures and chords for acoustic guitar and electric guitar, ukulele, drums are parodies/interpretations of the original songs. You may use it for private study, scholarship, research or language learning purposes only