Home » A » Alessia Cara »

Alessia Cara - Here Tabs

Artists:  A B C D E F G H I J K L M N O P Q R S T U V W X Y Z # 

Here Tabs

(ver. 1) Click to play this song!
Alessia Cara
[Verse]
    Dm/B               Bbmaj7            Dm                Dm/C
      PM-|               PM-|               PM-|               PM-|
e|----------1-------|----------1-------|----------1-------|----------1--------|
B|----3-----3-------|----3-----3-------|----3-----3-------|----3-----3--------|
G|----2-----2-------|----2-----2-------|----2-----2-------|----2-----2--------| 
D|------------------|------------------|--0---0-------0---|-------------------|
A|--2---2-------2---|--1---1-------1---|------------------|--3---3-------4----|
E|------------------|------------------|------------------|-------------------|
    1 & 2 & 3 & 4 &    1 & 2 & 3 & 4 &    1 & 2 & 3 & 4 &    1 & 2 & 3 & 4 &     
 ..sorry if I          seem...            I'm not...         I'm indifferent


    Dm/B               Bbmaj7            Dm                Dm/C
      PM-|               PM-|               PM-|               PM-|
e|----------1-------|----------1-------|----------1-------|----------1--------|
B|----3-----3-------|----3-----3-------|----3-----3-------|----3-----3--------|
G|----2-----2-------|----2-----2-------|----2-----2-------|----2-----2--------| 
D|------------------|------------------|--0---0-------0---|-------------------|
A|--2---2-------2---|--1---1-------1---|------------------|--3---3-------4----|
E|------------------|------------------|------------------|-------------------|
    1 & 2 & 3 & 4 &    1 & 2 & 3 & 4 &    1 & 2 & 3 & 4 &    1 & 2 & 3 & 4 &     
    Truly..            got no..           since I..          I just..


  Dm/B               Bbmaj7              Dm                Dm/C
      PM-|               PM-|               PM-|               PM-|
e|----------1-------|----------1-------|----------1-------|----------1--------|
B|----3-----3-------|----3-----3-------|----3-----3-------|----3-----3--------|
G|----2-----2-------|----2-----2-------|----2-----2-------|----2-----2--------| 
D|------------------|------------------|--0---0-------0---|-------------------|
A|--2---2-------2---|--1---1-------1---|------------------|--3---3-------4----|
E|------------------|------------------|------------------|-------------------|
    1 & 2 & 3 & 4 &    1 & 2 & 3 & 4 &    1 & 2 & 3 & 4 &    1 & 2 & 3 & 4 &      
  ..really..        ..home all by..     ..room with..        ..care about my..


  Dm/B               Bbmaj7            Dm                Dm/C
      PM-|               PM-|               PM-|               PM-|
e|----------1-------|----------1-------|----------1-------|----------1--------|
B|----3-----3-------|----3-----3-------|----3-----3-------|----3-----3--------|
G|----2-----2-------|----2-----2-------|----2-----2-------|----2-----2--------| 
D|------------------|------------------|--0---0-------0---|-------------------|
A|--2---2-------2---|--1---1-------1---|------------------|--3---3-------4----|
E|------------------|------------------|------------------|-------------------|

    1 & 2 & 3 & 4 &    1 & 2 & 3 & 4 &    1 & 2 & 3 & 4 &    1 & 2 & 3 & 4 &       
  ..don't dance..      I don't need..  ..you can go..      ..please enjoy your party


[Pre-Chorus]

   Bm(no5)                  Bb(no5)                          
e|-10--- 10----10----10----|-10--- 10----10----10----|
B|-------------------------|-------------------------|
G|-7-----7-----7-----7-----|-7-----7-----7-----7-----|
D|-------------------------|-------------------------|
A|-------------------------|-------------------------|
E|-7-----------------------|-6-----------------------|
   1  &  2  &  3  &  4  &    1  &  2  &  3  &  4  &     
 ..here                    ..somewhere in the corner
                                                                                 
   D(no3)                    Csus2(no5)
e|-7-----7-----7-----7-----|-7-----7-----7-----7-----|
B|-------------------------|-------------------------|
G|-7-----7-----7-----7-----|-7-----7-----7-----7-----|
D|-0-----------------------|-------------------------|
A|-------------------------|-------------------------|
E|-------------------------|-8-----------------------|
   1  &  2  &  3  &  4  &    1  &  2  &  3  &  4  &
..clouds of marijuana      ..boy who's hollering 

   Bm(no5)                  Bb(no5)                          
e|-10--- 10----10----10----|-10--- 10----10----10----|
B|-------------------------|-------------------------|
G|-7-----7-----7-----7-----|-7-----7-----7-----7-----|
D|-------------------------|-------------------------|
A|-------------------------|-------------------------|
E|-7-----------------------|-6-----------------------|
   1  &  2  &  3  &  4  &    1  &  2  &  3  &  4  &     
 ..hear                   ..music I don't listen 
                                                                                 
   D(no3)                    Csus2(no5)
e|-7-----7-----7-----7-----|-7-----7-----7-----7-----|
B|-------------------------|-------------------------|
G|-7-----7-----7-----7-----|-7-----7-----7-----7-----|
D|-0-----------------------|-------------------------|
A|-------------------------|-------------------------|
E|-------------------------|-8-----------------------|
   1  &  2  &  3  &  4  &    1  &  2  &  3  &  4  &
 ..I don't wanna           ..tell my friends 

  
[Chorus]
    Dm/B               Bbmaj7            Dm                Dm/C                        
e|----------1-------|----------1-------|----------1-------|----------1--------|
B|----3-----3-------|----3-----3-------|----3-----3-------|----3-----3--------|
G|----2-----2-------|----2-----2-------|----2-----2-------|----2-----2--------|   
D|------------------|------------------|--0---0-------0---|-------------------|
A|--2---2-------2---|--1---1-------1---|------------------|--3---3-------4----|
E|------------------|------------------|------------------|-------------------|
    1 & 2 & 3 & 4 &    1 & 2 & 3 & 4 &    1 & 2 & 3 & 4 &    1 & 2 & 3 & 4 & 
  ..here             ..here             ..here             ..ask myself what

    Dm/B               Bbmaj7            Dm                Dm/C                        
e|----------1-------|----------1-------|----------1-------|----------1--------|
B|----3-----3-------|----3-----3-------|----3-----3-------|----3-----3--------|
G|----2-----2-------|----2-----2-------|----2-----2-------|----2-----2--------|   
D|------------------|------------------|--0---0-------0---|-------------------|
A|--2---2-------2---|--1---1-------1---|------------------|--3---3-------4----|
E|------------------|------------------|------------------|-------------------|
    1 & 2 & 3 & 4 &    1 & 2 & 3 & 4 &    1 & 2 & 3 & 4 &    1 & 2 & 3 & 4 & 
  ..here             ..here             ..wait till we can   break up outta here



[Verse 1]
     Dm/B      Bbmaj7     
I'm sorry if I seem uninterested
     Dm                  Dm/C  
Or I'm not listenin', or I'm indifferent
 Dm/B         Bbmaj7   
Truly I ain't got no business here
     Dm/B                      Dm/C 
But since my friends are here, I just came to kick it
      Dm/B                     Bbmaj7 
But really I would rather be at home all by myself
            Dm                
Not in this room
                             Dm/C                        
With people who don't even care about my well-being
  Dm/B                     Bbmaj7
I don't dance, don't ask, I don't need a boyfriend
    Dm                 Dm/C    
So you can, go back, please enjoy your party


[Pre-Chorus]
 Bm(no5)                  
I'll be here
Bb(no5)  
Somewhere in the corner
        D(no3) 
Under clouds of marijuana
          Csus2(no5)
With this boy who's hollering
             Bm(no5) 
I can hardly hear
           Bb(no5) 
Over this music I don't listen to
    D(no3)                
And I don't wanna get with you
   Csus2(no5)                        Dm/B
So tell my friends that I'll be over here


[Chorus]
         Bbmaj7         Dm                
Oh-oh-oh here, oh-oh-oh here
     Dm/C                        Dm/B
Oh I ask myself, what am I doin' here?
         Bbmaj7         Dm  
Oh-oh-oh here, oh-oh-oh here
            Dm/C
And I can't wait 'til we can break up out of here


[Verse 2]
   Dm/B               Bbmaj7         
Excuse me if I seem a little unimpressed with this
   Dm                         Dm/C 
An anti-social pessimist, but usually I don't mess with this
    Dm/B            Bbmaj7  
And I know you mean only the best
    Dm                         Dm/C 
And your intentions aren't to bother me
     Dm/C 
But honestly I'd rather be
 Dm/B               
Somewhere with my people
       Bbmaj7   
We can kick it and just listen to
     Dm                            Dm/C 
Some music with a message, like we usually do
                      Dm/B 
And we'll discuss our big dreams
               Bbmaj7 
How we plan to take over the planet
    Dm
So pardon my manners
  Dm/C                                
I hope you'll understand that I'll be 


[Pre-Chorus]
Bm(no5) 
Here
Bb(no5)
Not there in the kitchen
         D(no3)                      Csus2(no5)
With the girl who's always gossiping about her friends
                     Bm(no5)
So tell them I'll be here
Bb(no5)                              D(no3)
Right next to the boy who's throwin' up
                                  Csus2(no5)
Cause he can't take what's in his cup no more
                Dm/B 
Oh God why am I here?


[Chorus]
         Bbmaj7         Dm                
Oh-oh-oh here, oh-oh-oh here
     Dm/C                        Dm/B
Oh I ask myself, what am I doin' here?
         Bbmaj7         Dm  
Oh-oh-oh here, oh-oh-oh here
            Dm/C
And I can't wait 'til we can break up out of here


[Bridge]
Bm(no5)                  Bb(no5)         
Hours later congregatin' next to the refrigerator
D(no3)                              Csus2(no5)
Some girl talkin' 'bout her haters, she ain't got none
Bm(no5)                          Bb(no5) 
How did it ever come to this? I shoulda never come to this
D(no3)                          Csus2(no5)
So holla at me, I'll be in the car when you're done
          Dm/B                           Bbmaj7
I'm stand-offish, don't want what you're offerin'
              Dm               Dm/C                         
And I'm done talkin', awfully sad it had to be that way
Dm/B                               Bbmaj7
    So tell my people when they're ready that I'm ready
          Dm                        Dm/C
And I'm standin' by the TV with my beanie low
                Dm/B
Yo I'll be over here

[Chorus]
Oh-oh-oh here, oh-oh-oh here
Oh I ask myself, what am I doin' here?
Oh-oh-oh here, oh-oh-oh here
And I can't wait 'til we can break up out of here

   
[Chorus]
         Bbmaj7         Dm                
Oh-oh-oh here, oh-oh-oh here
     Dm/C                        Dm/B
Oh I ask myself, what am I doin' here?
         Bbmaj7         Dm  
Oh-oh-oh here, oh-oh-oh here
            Dm/C
And I can't wait 'til we can break up out of here



            
Submit corrections

↑ Back to top | Tablatures and chords for acoustic guitar and electric guitar, ukulele, drums are parodies/interpretations of the original songs. You may use it for private study, scholarship, research or language learning purposes only