Home » A » Alan Parsons Project »

Alan Parsons Project - I Wouldnt Want To Be Like You Tabs

Artists:  A B C D E F G H I J K L M N O P Q R S T U V W X Y Z # 

I Wouldnt Want To Be Like You Tabs

(ver. 1) Click to play this song!
Alan Parsons Project
[Intro]

Part 1

e|-(0)------|-(0)-------|
B|--1-------|--3--------|
G|--4-------|--3--------| x4
D|--4-------|--5--------|
A|----------|-----------|
E|----------|-----------|

Part 2

e|-(0)-------------------------------|--0--------------------------------|--0-------------------------------|
B|--1--------------------------------|--3--------------------------------|--1-------------------------------|
G|--4--------------------------------|--4--------------------------------|--2-------------------------------|
D|--4--------------------------------|--5--------------------------------|--3-------------------------------|
A|--0-0-0-0-0-0-0-0-0-0-0-0-0-0-0-0--|--0-0-0-0-0-0-0-0-0-0-0-0-0-0-0-0--|--0-0-0-0-0-0-0-0-0-0-0-0-0-0-0-0-|
E|-----------------------------------|-----------------------------------|----------------------------------|

e|-0-------------------------------|
B|-3-------------------------------|
G|-4-------------------------------|
D|-5-------------------------------|
A|-0-0-0-0-0-0-0-0-0-0-0-0-0-0-0-0-|
E|---------------------------------|

Part 3

e|--0--------------------------------|--0--------------------------------|--0-------------------------------|
B|--1--------------------------------|--3--------------------------------|--1-------------------------------|
G|--2--------------------------------|--4--------------------------------|--2-------------------------------|
D|--2--------------------------------|--5--------------------------------|--3-------------------------------|
A|--0-0-0-0-0-0-0-0-0-0-0-0-0-0-0-0--|--0-0-0-0-0-0-0-0-0-0-0-0-0-0-0-0--|--0-0-0-0-0-0-0-0-0-0-0-0-0-0-0-0-|
E|-----------------------------------|-----------------------------------|----------------------------------|

e|--0--------------------------------|
B|--3--------------------------------|
G|--4--------------------------------| x3
D|--5--------------------------------|
A|--0-0-0-0-0-0-0-0-0-0-0-0-0-0-0-0--|
E|-----------------------------------|


[Pre-verse]

e|--0--0---0-0--0-3-----2--|--0--0---0-0--0-3-----2--|
B|--1--1---1-1--1-1-(1)-1--|--1--1---1-1--1-1-(1)-1--|
G|--0--0---0-0--0-0-(0)-0--|--0--0---0-0--0-0-(0)-0--| x2
D|--2--2---2-2--2-2-(2)-2--|--2--2---2-2--2-2-(2)-2--|
A|--0--0---0-0--0-0-(0)-0--|--0--0---0-0--0-0-(0)-0--|
E|-------------------------|-------------------------|


[Verse] (1, 2, 3)

e|--5--5---5-5--5-8-----7--|--5--5---5-5--5-8-----7--|--0--0---0-0--0-3-----2--|--0--0---0-0--0-3-----2--|
b|--6--6---6-6--6-6-(6)-6--|--6--6---6-6--6-6-(6)-6--|--1--1---1-1--1-1-(1)-1--|--1--1---1-1--1-1-(1)-1--|
G|--5--5---5-5--5-5-(5)-5--|--5--5---5-5--5-5-(5)-5--|--0--0---0-0--0-0-(0)-0--|--0--0---0-0--0-0-(0)-0--|
D|--7--7---7-7--7-7-(7)-7--|--7--7---7-7--7-7-(7)-7--|--2--2---2-2--2-2-(2)-2--|--2--2---2-2--2-2-(2)-2--|
A|--5--5---5-5--5-5-(5)-5--|--5--5---5-5--5-5-(5)-5--|--0--0---0-0--0-0-(0)-0--|--0--0---0-0--0-0-(0)-0--|
E|-------------------------|-------------------------|-------------------------|-------------------------|

e|--5--5---5-5--5-8-----7--|--5--5---5-5--5-8-----7--|--0--0---0-0--0-0-----0--|--0--0---0-0--0-0-----0--|
B|--6--6---6-6--6-6-(6)-6--|--6--6---6-6--6-6-(6)-6--|--1--1---1-1--1-1-(1)-1--|--3--3---3-3--3-3-(3)-3--|
G|--5--5---5-5--5-5-(5)-5--|--5--5---5-5--5-5-(5)-5--|--0--0---0-0--0-0-(0)-0--|--4--4---4-4--4-4-(4)-4--|
D|--7--7---7-7--7-7-(7)-7--|--7--7---7-7--7-7-(7)-7--|--2--2---2-2--2-2-(2)-2--|--5--5---5-5--5-5-(5)-5--|
A|--5--5---5-5--5-5-(5)-5--|--5--5---5-5--5-5-(5)-5--|--0--0---0-0--0-0-(0)-0--|--0--0---0-0--0-0-(0)-0--|
E|-------------------------|-------------------------|-------------------------|-------------------------|

e|--0--0---0-0--0-0--0---|--0-----0----------------|--0--0---0-0--0-0-----0--|
B|--3--3---3-3--3-3--3---|--3-----3--3-------------|--1--1---1-1--1-1-(1)-1--|
G|--2--2---2-2--2-2--2---|--4-----4--2-------------|--0--0---0-0--0-0-(0)-0--|
D|--3--3---3-3--3-3--3---|--5-----5--3-------------|--2--2---2-2--2-2-(2)-2--|
A|--0--0---0-0--0-0--0---|--0-----0--0-------------|--0--0---0-0--0-0-(0)-0--|
E|-----------------------|-------------------------|-------------------------|


[Solo]

Rhythm = Verse 


[Outro]

e|--0--0---0-0--0-0-----0--|--0--0---0-0--0-0--0---|--0-----0----------------|
B|--3--3---3-3--3-3-(3)-3--|--3--3---3-3--3-3--3---|--3-----3--3-------------|
G|--4--4---4-4--4-4-(4)-4--|--2--2---2-2--2-2--2---|--4-----4--2-------------|
D|--5--5---5-5--5-5-(5)-5--|--3--3---3-3--3-3--3---|--5-----5--3-------------|
A|--0--0---0-0--0-0-(0)-0--|--0--0---0-0--0-0--0---|--0-----0--0-------------|
E|-------------------------|-----------------------|-------------------------|

e|--0--------------------------------|--0--------------------------------|--0-------------------------------|
B|--1--------------------------------|--3--------------------------------|--3-------------------------------|
G|--2--------------------------------|--4--------------------------------|--2-------------------------------|
D|--2--------------------------------|--5--------------------------------|--3-------------------------------|
A|--0-0-0-0-0-0-0-0-0-0-0-0-0-0-0-0--|--0-0-0-0-0-0-0-0-0-0-0-0-0-0-0-0--|--0-0-0-0-0-0-0-0-0-0-0-0-0-0-0-0-|
E|-----------------------------------|-----------------------------------|----------------------------------|

e|--0--------------------------------|--0--------------------------------|--0--------------------------------|
B|--3--------------------------------|--1--------------------------------|--3--------------------------------|
G|--4--------------------------------|--2--------------------------------|--4--------------------------------|
D|--5--------------------------------|--2--------------------------------|--5--------------------------------|
A|--0-0-0-0-0-0-0-0-0-0-0-0-0-0-0-0--|--0-0-0-0-0-0-0-0-0-0-0-0-0-0-0-0--|--0-0-0-0-0-0-0-0-0-0-0-0-0-0-0-0--|
E|-----------------------------------|-----------------------------------|-----------------------------------|

e|--0-------------------------------|--0--------------------------------|--0--------------------------------|
B|--3-------------------------------|--3--------------------------------|--1--------------------------------|
G|--2-------------------------------|--4--------------------------------|--2--------------------------------|
D|--3-------------------------------|--5--------------------------------|--2--------------------------------|
A|--0-0-0-0-0-0-0-0-0-0-0-0-0-0-0-0-|--0-0-0-0-0-0-0-0-0-0-0-0-0-0-0-0--|--0-0-0-0-0-0-0-0-0-0-0-0-0-0-0-0--|
E|----------------------------------|-----------------------------------|-----------------------------------|

e|-(0)-(0)----(0)------------|
B|--1---1---0--1-------------|
G|--2---2---0--2-------------|
D|--2---2---0--2-------------|
A|--0---0------0-------------|
E|---------------------------|


            
Submit corrections

↑ Back to top | Tablatures and chords for acoustic guitar and electric guitar, ukulele, drums are parodies/interpretations of the original songs. You may use it for private study, scholarship, research or language learning purposes only