Home » A » Alan Menken »

Alan Menken - Under The Sea Tabs

Artists:  A B C D E F G H I J K L M N O P Q R S T U V W X Y Z # 

Under The Sea Tabs

(ver. 1) Click to play this song!
Alan Menken
Tuning:

e|---------------------------------------------------------------------------|
B|------------1--------------------------------------------------------------|
G|--3-3-3-3-2---3------------------------------------------------------------|
D|----------------3-0-3-3-0---3-0--------------------------------------------|      Times 2
A|--------------------------3------------------------------------------------|
E|---------------------------------------------------------------------------|

e|---------------------------------------------------------------------------|
B|----------------1-1-1---3-1------------------------------------------------|
G|--3-3-3-3---3---------3-----3----------------------------------------------|
D|----------3---3------------------------------------------------------------|     Times 2
A|---------------------------------------------------------------------------|
E|---------------------------------------------------------------------------|

e|---------------------------------------------------------------------------|
B|---3-1-----3-1---1-3-1-------3-1-------3-1---3-----------------------------|
G|-------3-0-----3-------3-0-------3-0-------3-------------------------------|
D|---------------------------3---------3-------------------------------------|
A|---------------------------------------------------------------------------|
E|---------------------------------------------------------------------------|

e|---------------------------------------------------------------------------|
B|-3-1-----------1-1---1-3-3-1-1---3-1-------3-1-------3-1-------------------|
G|-----3-0-3-3-0-----3-----------3-----3-0-------3-0-------3-3---------------|
D|-----------------------------------------3---------3-----------------------|
A|---------------------------------------------------------------------------|
E|---------------------------------------------------------------------------|
            
Submit corrections

↑ Back to top | Tablatures and chords for acoustic guitar and electric guitar, ukulele, drums are parodies/interpretations of the original songs. You may use it for private study, scholarship, research or language learning purposes only