» » »

Alan Jackson - So You Dont Have To Love Me Anymore Tabs

Artists:  A B C D E F G H I J K L M N O P Q R S T U V W X Y Z # 

So You Dont Have To Love Me Anymore Tabs

(ver. 1) Click to play this song!
Alan Jackson
 Rating:
4/5 (4 votes)

 So You Dont Have To Love Me Anymore lessons Tabs too difficult? Try these video lessons and learn fast
 
                Alan Jackson:  So You Don’t Have To Love Me Anymore
Solo:
E[-----------------------------------------------------------------------------]
B[--------8-8h10p8------------------------10-8---------------------------------]
G[-5-7/9------------9----9b--9\7-5-7b(9)------9p7-----9b-7-9-7\5b--------------]
D[---------------------10-------------------------10---------------5/7---------]
A[----------------------------------------------------------------------5\3----]
E[-----------------------------------------------------------------------------]

E[----------------------------10/12b---10b---8-10-12-13-12-------------------------------]
B[--------------8-10------8-----------8-----8-------------13-15—12h13b-8h10p8------------]
G[-----5h7/9---------9--------------------------------------------------------9-7----7---]
D[-5h7----------------------------------------------------------------------------10--5--]
A[---------------------------------------------------------------------------------------]
E[---------------------------------------------------------------------------------------]
            
Submit corrections


        So You Dont Have To Love Me Anymore lessons Hard to play? Try these video lessons and learn fast So You Dont Have To Love Me Anymore lessons
        
↑ Back to top | Tablatures and chords for acoustic guitar and electric guitar, ukulele, drums are parodies/interpretations of the original songs. You may use it for private study, scholarship, research or language learning purposes only