» » »

Alan Jackson - Someday Tabs

Artists:  A B C D E F G H I J K L M N O P Q R S T U V W X Y Z # 

Someday Tabs

(ver. 1) Click to play this song!
Alan Jackson
 Rating:
4/5 (4 votes)

 Someday lessons Tabs too difficult? Try these video lessons and learn fast
 
                Alan Jackson - Someday  (picking)



To play this, use a capo on the 3rd fret.
All notes and chords are relative to position of capo.

There is already a chord/lyrics tab on the site for this song,
so I've just tabbed the main picking for the verse.
Use the chord tab to get the timing for the song.


E  [G]     =   022100                  D  [F]               =   xx0232

E7  [G7]   =   020100                  A(add9)  [C(add9)]   =   x02420

A  [C]     =   x02220                  D(add9)  [F(add9)]   =   xx0230


*****************************************************************************



   E       D            E7    A(add9)    A    E    D(add9)  D    

E-------------2----0h2-------------0------------0------0--------2-----
B----0-------3-----------------------------2---------3---3----3---3---
G------1----2-----2--------1----4-2--4-2----2----1--2-2-2-2--2-2-2-2--
D---2-2-2--0-----0--------0----2----2-----2----2---0--------0---------
A------------------------2----0----------0----------------------------
E--0--------------------0---------------------0-----------------------


   E          A    E    D              E    A            E    D

E--------------------0-------2-0----2----------------------0------2-----
B----0----------2----------3----3--------0----2---2---2----0----3---3---
G----1---2-4-----2--------2-2-2----2-2---1-----2---2---2-------2-2-2-2--
D---2-2--4-6---2----2-2--0--------0-----2-2--2---2---2----2-2-0---------
A-------------0-----------------------------0---0---0-------------------
E--0-----2-4-------0-------------------0-----------------0--------------

  
        E    A    
                      chorus
E-----------------------|
B----3----0----2--0-1---|
G---2-2---1-----2-------|
D--0-------0--2---------|
A--------2---0----2-4---|
E-------0---------------|


            
Submit corrections


        Someday lessons Hard to play? Try these video lessons and learn fast Someday lessons
        
↑ Back to top | Tablatures and chords for acoustic guitar and electric guitar, ukulele, drums are parodies/interpretations of the original songs. You may use it for private study, scholarship, research or language learning purposes only