» » »

Alan Jackson - She's Got The Rhythm (And I Got The Blues) Tabs

Artists:  A B C D E F G H I J K L M N O P Q R S T U V W X Y Z # 

She's Got The Rhythm (And I Got The Blues) Tabs

(ver. 1) Click to play this song!
Alan Jackson
 Rating:
4/5 (4 votes)

 She's Got The Rhythm (And I Got The Blues) lessons Tabs too difficult? Try these video lessons and learn fast
 
                "She's Got the Rhythm (and I got the Blues) (Alan Jackson)

LEAD GUITAR SOLO :

**********************************************************

b  = bend,    \ = slide down,  / = slide up,

bh = bend and hold, h = hammer on, ~ = vibrato

( ) = artificial harmonic
***********************************************************|
 
 
  A
  
E-------------------------------------|-------5--------5----
B-------------------------------------|-------5--------5----
G-------------2------2--------5---7---|---7b-------7b-------
D------2--4-------4------/7-----------|---------------------
A--0/4--------------------------------|---------------------
E-------------------------------------|---------------------


                        D

E-------5---------5---|------5----------5---8-------8-----|
B-------5---------5---|------5----------5---7b------7b----|
G--7b--------7b-------|-7b--------7b----------------------|
D---------------------|-----------------------------------|
A---------------------|-----------------------------------|
E---------------------|-----------------------------------|
                     
                          
    A                               E         
  
E---8-----5-------------------5----(5)/--|-------12----12--
B---7b----5--------7-----5----5----(5)/--|-------12----12--
G------------------7---5h6---------------|--14b------------
D---------------7------------------------|-----------------
A----------------------------------------|-----------------
E----------------------------------------|-----------------


                     ~~~~~~~~~~~~~~~~~   
                                         violin solo....    
E-------12-----------------------------|-------------------
B-------12---14----12b-----------------|-------------------
G--14b-------14----12b-----------------|-------------------
D-------------------------14-----(14)\-|-------------------
A--------------------------------------|-------------------
E--------------------------------------|-------------------

"            
Submit corrections


        She's Got The Rhythm (And I Got The Blues) lessons Hard to play? Try these video lessons and learn fast She's Got The Rhythm (And I Got The Blues) lessons
        
↑ Back to top | Tablatures and chords for acoustic guitar and electric guitar, ukulele, drums are parodies/interpretations of the original songs. You may use it for private study, scholarship, research or language learning purposes only