» » »

Alan Jackson - She Just Started Liking Cheatin' Songs Tabs

Artists:  A B C D E F G H I J K L M N O P Q R S T U V W X Y Z # 

She Just Started Liking Cheatin' Songs Tabs

(ver. 1) Click to play this song!
Alan Jackson
 Rating:
4/5 (4 votes)

 She Just Started Liking Cheatin' Songs lessons Tabs too difficult? Try these video lessons and learn fast
 
                She Just Started Liking Cheatin’ Songs
Alan Jackson

Solo  (1:14)
e------------10-|------------------------------------6-----------
B----8---/12----|-10-10(12)10-8-8h10p8----8-8----------8---------
G-/9------------|--x---b--r-------------------(9)7-5-----(9)7-5--
D---------------|------------------------------pbr--------pbr----
A---------------|------------------------------------------------
E-[G]-----------|-[C]--------------------------------------------

 (1:20)
e-------3-----------------------------------------------------
B--------------------------------------------8----------------
G--5(7)----2(4)2-0-—0h2-0~-------------5-7/9---9-(9)7-5—-5/9--
D---bh------b-r-----0---0~-------5----------------pbr---------
A--------------------------------------[C]--------------------
E—[G]------------------------0/7---0/7------------------------

 (1:26)                       x
e-------8---------------------6--------------------------------
B-8(10)---(10)8-6-------8~----6----------------------------[C]
G--b---------r----8-5/7--------(7)5-3-------------------------
D-------------------------------pbr----3-5/8-5-3--------------
A------------------------------------------------4p3p1--3-1---
E-[D}-----------------[G]-----------------------------------3-
            
Submit corrections


        She Just Started Liking Cheatin' Songs lessons Hard to play? Try these video lessons and learn fast She Just Started Liking Cheatin' Songs lessons
        
↑ Back to top | Tablatures and chords for acoustic guitar and electric guitar, ukulele, drums are parodies/interpretations of the original songs. You may use it for private study, scholarship, research or language learning purposes only