» » »

Alan Jackson - Right On The Money Tabs

Artists:  A B C D E F G H I J K L M N O P Q R S T U V W X Y Z # 

Right On The Money Tabs

(ver. 1) Click to play this song!
Alan Jackson
 Rating:
4/5 (4 votes)

 Right On The Money  lessons Tabs too difficult? Try these video lessons and learn fast
 
                Alan Jackson - Right On The Money (solo)



***********************************************************************

/   =   slide up                            \   =   slide down

h   =   hammer-on                           

***********************************************************************



E--11------------------------------18--16----------------------------
B----11/13-11-11-13--------------16--16--18/20-16--------------------
G------------------12\10-8--8--17----------------15\13--13-11h12-----
D-------------------------10--------------------------15--------13---
A-----------------------------------------------------------------13-
E--------------------------------------------------------------------


E-----------------------|
B-----------13-11---\---|
G-----------13-11h12\---|
D---------13------------|
A--11\8/10--------------|
E-----------------------|


            
Submit corrections


        Right On The Money  lessons Hard to play? Try these video lessons and learn fast Right On The Money  lessons
        
↑ Back to top | Tablatures and chords for acoustic guitar and electric guitar, ukulele, drums are parodies/interpretations of the original songs. You may use it for private study, scholarship, research or language learning purposes only