» » »

Alan Jackson - Once You've Had The Best Tabs

Artists:  A B C D E F G H I J K L M N O P Q R S T U V W X Y Z # 

Once You've Had The Best Tabs

(ver. 1) Click to play this song!
Alan Jackson
 Rating:
4/5 (4 votes)

 Once You've Had The Best lessons Tabs too difficult? Try these video lessons and learn fast
 
                E(-------10h12-10--------------------------------------------------------------
B(-10/12----------10-pb12r10-8-pb12r10-8-------------8/10-10/12-12~------------
G(---------------------------------------7~~h9p7\6-7---------------------------
D(-----------------------------------------------------------------------------
A(-----------------------------------------------------------------------------
E(-----------------------------------------------------------------------------

E(-10h12-10\---------------------------7---------------------------------------
B(--------------13-10/12\-8h10-8-10b12---pb12r10-8-10b12r10b12r10--------------
G(-----------12----------------------------------------------------------------
D(-----------------------------------------------------------------------------
A(-----------------------------------------------------------------------------
E(-----------------------------------------------------------------------------

E(-----------------------------------------------------------------------------
B(-7h8h9/10\9p8p7-------5-----------------------3-4----------------------------
G(----------------7-6-5--5-------------2---5-3h4---4---7/9-5/7-7/9-7b9---------
D(-------------------------7-5-4-5----4-4/5---------5--------------------------
A(---------------------------------2-4---------------7-------------------------
E(--------------------------------3--------------------------------------------
   1,2,3,3,3,2,1                 ^Quick Transfer 

E(-------------------10h12-10--------------------------7-----------------------
B(--------8-10-10/12----------pb12r10-----8-10-8-10b12---pb12r10-8-8h10p8---8~~
G(-5-3h4--x---------------------------7h9---------------------------------9----
D(--------x--------------------------------------------------------------------
A(--------x--------------------------------------------------------------------
E(-----------------------------------------------------------------------------

E(-----------------------------------------------------------------------------
B(-8\--6\--5\--3\--1-----------------------------------------------------------
D(-----------------------------------------------------------------------------
D(-9\--7\--5\--3\--2-----------------------------------------------------------
A(-----------------------------------------------------------------------------
E(-----------------------------------------------------------------------------
            
Submit corrections


        Once You've Had The Best lessons Hard to play? Try these video lessons and learn fast Once You've Had The Best lessons
        
↑ Back to top | Tablatures and chords for acoustic guitar and electric guitar, ukulele, drums are parodies/interpretations of the original songs. You may use it for private study, scholarship, research or language learning purposes only