» » »

Alan Jackson - Murder On Music Row Tabs

Artists:  A B C D E F G H I J K L M N O P Q R S T U V W X Y Z # 

Murder On Music Row Tabs

(ver. 1) Click to play this song!
Alan Jackson
 Rating:
4/5 (4 votes)

 Murder On Music Row lessons Tabs too difficult? Try these video lessons and learn fast
 
                Murder on Music Row        George Strait and Alan Jackson

Riffs
E---------------10-9-------------------------------------b--------|
B-------5-7-5-------/12-10-----7---5-------5-x-7-x-9-/12~(14)p10--|
G-2-4/6----------------------6---6------/9---9---9----------------|
D-----------------------------------------------------------------|
A-(0:58)--------(1:03)-------(1:08)-----(1:14)--------------------|
E—[1]-----------[2]-----------[3]-------[4]-----------------------| 

E----------------(1:24)-------------------------------------(1:34)---------------|
B-5---------------[6]-------------3-------2-2p0h2-3-3/5-5—--[8]------------------|
G---6\4-2---------------------------------2-2-----4-4/6-6------------------------|
D---------2h4-2-------0-0h2-4-4h5---/4-----------------------------2-2-4---------|
A-(1:20)----------0h2---------------------(1:29)-------------0-2/4-------4\2-0-0-|
E—[5]--------------------------------------[7]-----------------------------------|

E------------------------7----7-------------------------------------|
B--bh--xxx--bh-------bh---------10----r-----------5---7---5---------|
G-4(5)-444-4(5)-----9(11)-(11)-----(11)9----2-4/6---6---6---6\4p2---|
D---------------5-------------------------------------------------2-|
A-(3:32)------------(3:37)------------------(3:43)------------------|
E—[9]---------------[10]--------------------[11]--------------------|

E---5---------------------------------|
B-5---5-7-5---5-----------------------|
G-----------6---4-2-2p0---------------|
D-----------------------4-2-----2-----|
A-(3:47)--------------------2/4---2-0-|
E—[12]--------------------------------|

 {D} {A} {E} {A} {A}

{A} Nobody saw them running from 16th Ave-{D}-nue
They never found the {A} fingerprints or the weapon that was {E} used
But some-{A}-one killed country music, cut out its heart and {D} soul
They got away with {A} murder {E} Down on music {A} row

The almight dollar [1] and the lust for worldwide fame [2]
Slowly killed tradition [3] and for that, someone should hang [4]   
They all say "Not Guilty!"  [5] but the evidence will show
That murder was committed down on music row

Chorus
For the {D} steel guitars no longer cry and the {A} fiddles barely play
But {B7} drums and rock 'n' roll guitars are {E} mixed up in your face
{A} Ol'  Hank wouldn't have a chance on today's {D} radio
Since they committed {A} murder {E} down on music {A} row

{D} {A} {E} {A} {A}

They thought no one would miss it once it was dead and gone
They said no one would buy them ol' drinkin' and cheatin' songs  
Well there ain't no justice in it and the hard facts are cold
Murder's been committed down on music row

Chorus 
For the steel guitars no longer cry and you can't hear fiddles play
With drums and rock 'n' roll guitars mixed right up in your face
Why the Hag wouldn't have a chance [9] on today's radio [10]
Since they committed murder [11] down on music row [12]

Why they {A} even tell the Possum to pack up and go back {D} home
There's been an awful {A} murder {E} Down on music {A} row
            
Submit corrections


        Murder On Music Row lessons Hard to play? Try these video lessons and learn fast Murder On Music Row lessons
        
↑ Back to top | Tablatures and chords for acoustic guitar and electric guitar, ukulele, drums are parodies/interpretations of the original songs. You may use it for private study, scholarship, research or language learning purposes only