» » »

Alan Jackson - Alright To Be A Redneck Tabs

Artists:  A B C D E F G H I J K L M N O P Q R S T U V W X Y Z # 

Alright To Be A Redneck Tabs

(ver. 1) Click to play this song!
Alan Jackson
 Rating:
4/5 (4 votes)

 Alright To Be A Redneck lessons Tabs too difficult? Try these video lessons and learn fast
 
                Alan Jackson - It's Alright To Be A Redneck (intro)


Tune low E string to D.

***********************************************************************

b   =   bend                                /   =   slide up

p   =   pulloff

***********************************************************************


  D                                                G       D

E---------------------------------------------------------------------
B---------------------------------------------------------------------
G---------------------------------------------------------------------
D---0-----0---------0------0-0--3b-0-0--0-----------5-----0-----------
A----2-3-2---2-3-0----2-3-2---2-----2----2-3-2-0-----7-8-7--0-2-3-2-0-
D--0--0-0---0-0---3b-0-0-0-----0-------0--0-0----2/5--5-5--0---0-0----

   A            D         G        D        A
 
E-----------------------------------------------------|
B--------------------------------------------2--2-2---|
G---2----------------------------------------2--2-2---|
D---2-4-3p2p0-0-----0------5-----0-----------2--2-2---|
A--0---0-----2----2---2-----7-8-7---2-0-2-0-0-0-------|
D---------------0----0--2/5--5-5---0-0-0--------------|

            
Submit corrections


        Alright To Be A Redneck lessons Hard to play? Try these video lessons and learn fast Alright To Be A Redneck lessons
        
↑ Back to top | Tablatures and chords for acoustic guitar and electric guitar, ukulele, drums are parodies/interpretations of the original songs. You may use it for private study, scholarship, research or language learning purposes only