» » »

Alan Jackson - I Slipped And Fell In Love Tabs

Artists:  A B C D E F G H I J K L M N O P Q R S T U V W X Y Z # 

I Slipped And Fell In Love Tabs

(ver. 1) Click to play this song!
Alan Jackson
 Rating:
4/5 (4 votes)

 I Slipped And Fell In Love lessons Tabs too difficult? Try these video lessons and learn fast
 
                Here is the intro for I slipped and fell in love. 
It could be played in a variety of places on
fretboard, but I think this sounds most 
similar to Alan's recording. 

e---------------------------------------------
b---15p13-15----------------------------------
g------------12h13p12-10--10-------/13-/13-12-
d-----------------------12---12-10------------
a---------------------------------------------
e---------------------------------------------

e---------------------------------------------
b---------------------------------------------
g-------10-/13-13-7p5-5-5---------------------
d--10h12---/14-14-----7-7--5-3-0---/6-6-5-----
a---------------------------------------------
e---------------------------------------------

pause for steel guitar part

e--------------------------------------------- 
b--12/13--12/13---------------------------------
g--12/13--12/13------12br10--10-----------------
d------------------------12-------------------
a---------------------------------------------
e---------------------------------------------
            
Submit corrections


        I Slipped And Fell In Love lessons Hard to play? Try these video lessons and learn fast I Slipped And Fell In Love lessons
        
↑ Back to top | Tablatures and chords for acoustic guitar and electric guitar, ukulele, drums are parodies/interpretations of the original songs. You may use it for private study, scholarship, research or language learning purposes only