» » »

Alan Jackson - I Don't Need The Booze (To Get A Buzz On) Tabs

Artists:  A B C D E F G H I J K L M N O P Q R S T U V W X Y Z # 

I Don't Need The Booze (To Get A Buzz On) Tabs

(ver. 1) Click to play this song!
Alan Jackson
 Rating:
4/5 (4 votes)

 I Don't Need The Booze (To Get A Buzz On) lessons Tabs too difficult? Try these video lessons and learn fast
 
                Played in drop D tuning. Listen to the song to get the timing right.

INTRO:

E-----------------------------------------------------------------
B-----------------------------------------------------------------
G--------------------------------0------------------0h2-----------
D------------2-----------------2----2\1\0-------------------------
A----------0----3br--0----------------------3br-0-----------------
D--2--5br----------------0-1-2------------------------------------

VERSE LICKS:

bp = bend and pull off

E--------------------------------
B--------------------------------
G--------2-------2---------------
D--------------------------------
A--3bp0----0-3br-----------------
D--------------------------------

This is hard for me to tab and explain.
Bend the string at the second fret a whole step without picking it,
then hit the E and G strings together and bring it back down. 

E---0-------------------------------------
B-----------------------------------------
G--b2r--0h1------------------------------
D------------2--2p1p0---------------------
A----------------------3br-0--------------
D-----------------------------------------


Bend the G string up and down repeatedly, and quickly on this lick.

E--------------------
B-----5--------------
G-----4b-------------
D--------------------
A--------------------
D--------------------

I'm unsure about the tabbing so I'll explain just incase lol
You bend the G string up a whole step, bring it back down, then pull off on the second fret.

E----------------------------------------------------------
B--------5---8------------5--------------------------------
G-----4b--r----7br--------4b6r4p2--------2-----------------
D------------------------------------2/4---0---------------
A----------------------------------------------------------
D----------------------------------------------------------


CHORUS:

E-------------------------------------
B-------------------------------------
G-------------------------------------
D--0----------------------------------
A----3-2-0----------------------------
D----------3-2br-0--------------------

LAST CHORUS:

E------------------------------5------------------------
B----------2-----------------5--------------------------
G------4b6---6r-0--------4/6-----4br-2---2--------------
D--------------------------------------4----4b-2--------
A-------------------------------------------------------
E-------------------------------------------------------

E--12----------------------------------------------
B--12b14r--12--------8------5----------------------
G----------12b14r----7b9r---4b6r---2\1\0-----------
D--------------------------------------------------
A------------------------------------------3br0----
E--------------------------------------------------

For some reason I can't figure out this end lick 100%.
I've tabbed out a ending lick to go along with it any ways.

E---------------------------------------------------------
B--5------------------------------------------------------
G--4b6r-2-4-2-----2---------------------------------------
D-------------2h4--------2--------------------------------
A--------------------2/4----2br-0-------------------------
D---------------------------------------------------------


I'm still trying to get the hang of writing out tablature....sorry for the sloppiness :/

Hope you enojoy it anyways!
            
Submit corrections


        I Don't Need The Booze (To Get A Buzz On) lessons Hard to play? Try these video lessons and learn fast I Don't Need The Booze (To Get A Buzz On) lessons
        
↑ Back to top | Tablatures and chords for acoustic guitar and electric guitar, ukulele, drums are parodies/interpretations of the original songs. You may use it for private study, scholarship, research or language learning purposes only