» » »

Alan Jackson - First Love Tabs

Artists:  A B C D E F G H I J K L M N O P Q R S T U V W X Y Z # 

First Love Tabs

(ver. 1) Click to play this song!
Alan Jackson
 Rating:
4/5 (4 votes)

 First Love lessons Tabs too difficult? Try these video lessons and learn fast
 
                Alan Jackson:First Love (Solo)



E-----------------------------------------------------------
B-----------------------------------------------------------
G-----------------------------------------------------------
D---2---4---4b(6)-4b(6)r4-2---------------------------------
A-2---2---2-----------------4b(5)-4b(5)r4-2---------------2-
E-------------------------------------------2b(3)r2-0-3h4---


E---------------------5/12---0--10---0-7---0-5---0-4p0------
B---------------------5/12-0----10-X-----X-----X-------5----
G---------------------6/13----------------------------------
D-2---------------------------------------------------------
A---0-2b(3)-2b(3)r2-0---------------------------------------
E-----------------------------------------------------------


E-----0---------7-6-5----------------------
B-0h2---2-0-----7-7-7-7-------------7-7/10-
G-----------4/8---------8-8-7-6-7-8-8-8/11-
D-----------------------9-9-8-7-8-9--------
A------------------------------------------
E------------------------------------------
            
Submit corrections


        First Love lessons Hard to play? Try these video lessons and learn fast First Love lessons
        
↑ Back to top | Tablatures and chords for acoustic guitar and electric guitar, ukulele, drums are parodies/interpretations of the original songs. You may use it for private study, scholarship, research or language learning purposes only