» » »

Alan Jackson - Dallas Tabs

Artists:  A B C D E F G H I J K L M N O P Q R S T U V W X Y Z # 

Dallas Tabs

(ver. 1) Click to play this song!
Alan Jackson
 Rating:
4/5 (4 votes)

 Dallas lessons Tabs too difficult? Try these video lessons and learn fast
 
                DALLAS
Alan Jackson
August 14, 2003

Solo
(1:11)
  
  (A)            (D)                  (E)           (D) 
  
E-------------------------------------------------------------------
B-------------------------------------------------------------------
G-------------------------------------------------------------------
D------------------2/4--4--4/2--0-------------------0---0--2--2/4---
A--2/4--4--4/2--0------------------b2-b2--2--2--2-0-----------------
E-------------------------------------------------------------------

    (E)           (A)

E--------------------------------------------------------
B-------------------------------------0----3--2----------
G--------------------------------2------2----------------
D----2-------------------------2---2---------------------
A-------4/2--0-------0-------0---------------------------
E----------------4---------------------------------------
            
Submit corrections


        Dallas lessons Hard to play? Try these video lessons and learn fast Dallas lessons
        
↑ Back to top | Tablatures and chords for acoustic guitar and electric guitar, ukulele, drums are parodies/interpretations of the original songs. You may use it for private study, scholarship, research or language learning purposes only