Home » A » Alabama »

Alabama - Feels So Right Bass

Artists:  A B C D E F G H I J K L M N O P Q R S T U V W X Y Z # 

Feels So Right Bass

(ver. 1) Click to play this song!
Alabama
Tempo 92 bpm

4/4

[Intro]
       Wx3        E   E  Q   Q  E  E
G|--------------|-10--9--10--8--5--5--|     
D|--------------|---------------------|
A|--------------|---------------------|
E|--------------|---------------------|

[VERSE 1]
   W        W          W            W
G|------|---1-----|-----------|-----1----|
D|-1----|---------|----1------|----------|
A|------|---------|-----------|----------|
E|------|---------|-----------|----------|

   W       W         W          W
G|-----|---1----|----------|----1----|
D|--1--|--------|----1-----|---------|
A|-----|--------|----------|---------|
E|-----|--------|----------|---------|

[CHORUS 1]
   T  T  T  X..   W    T  T  T  X..   W    H.  Q    W       W      W
G|----------------1--|----------------1--|-1-----|------|------|--------|
D|-------------------|-------------------|-----5-|--3---|------|---1----|
A|-0--1--2--3--------|-0--1--2--3--------|-------|------|---1--|--------|
E|-------------------|-------------------|-------|------|------|--------|

   W           W           W
G|-1-----|-----------|-----1----|
D|-------|-----1-----|----------|
A|-------|-----------|----------|
E|-------|-----------|----------|

[VERSE 2]
   H.   E   E     h.    E   E   H.  E   E    H.   E   E
G|-------------|--1-----1---1-|-----------|--1----1---1-|
D|-1----1---1--|--------------|-1---1---1-|-------------|
A|-------------|--------------|-----------|-------------|
E|-------------|--------------|-----------|-------------|

    H.  E   E    h.  E   E    H.  E   E   H.   E   E
G|------------|------------|------------|----------------|
D|--1---1---1-|------------|------------|----------------|
A|------------|--6---6----6|------------|----------------|
E|------------|------------|--11--11--11|\-4----4---4----|

[CHORUS 2]
   T   T   T   X..    W     T   T  T   X..    W      H.    Q       W
G|--------------------1---|-------------------1---|-----------|---------|
D|------------------------|-----------------------|--5-----3--|---------|
A|-0---1---2---3----------|-0---1--2---3----------|-----------|----1----|
E|------------------------|-----------------------|-----------|---------|

      W        H.     E    E     H.     E   E     H.    E   E
G|---------|-----------------|----------------|------------------|
D|----1----|---6------6----6-|----------------|------------------|
A|---------|-----------------|----------------|------------------|
E|---------|-----------------|---11-----11--11|\--4-----4---4----|

[INSTRUMENTAL] 
   H  E  E X.   H  E  E X.     H. E  E  X.    T..  S  S E  H.
G|------------|--------------|-------------|-------3--2-6--6-----|
D|-5--5----5--|-7--7-----7---|-8--8-----8--|--8------------------|
A|------5-----|-------7------|-------8-----|---------------------|
E|------------|--------------|-------------|---------------------|

[VERSE 3]
   H.   E  E   H.   E  E   H.   E  E    H.    E  E   X X X X X.
G|-----------|-3----3--3-|-----------|-------------|--------------|
D|-3----3--3-|-----------|-3----3--3-|-------------|--------------|
A|-----------|-----------|-----------|--1-----1--1-|-0-1-0-1-3----|
E|-----------|-----------|-----------|-------------|--------------|

   H.   E  E   H.   E  E   H.   E  E    H.    E  E
G|-----------|-3----3--3-|-----------|-------------|
D|-3----3--3-|-----------|-3----3--3-|-------------|
A|-----------|-----------|-----------|--1-----1--1-|
E|-----------|-----------|-----------|-------------|

[CHORUS 3]
   T   T   T   X..   E   E    H.   E   E    T   T   T   X..   E   E
G|-------------------------|--3----3---3--|--------------------------|
D|-------------0-----0---0-|--------------|-------------0-----0---0--|
A|-0---1---3---------------|--------------|-0---1---3----------------|
E|-------------------------|--------------|--------------------------|

    H.   E   E    H..     E       W        W           W
G|--3----3---3-|--3-----------|------|-----------|----------|
D|-------------|----------7---|---5--|-----------|-----3----|
A|-------------|--------------|------|-----3-----|----------|
E|-------------|--------------|------|-----------|----------|

   H.   E   E     H.   E   E     H.   E   E       W          W          W
G|-3----3---3--|--------------|--------------|----------|----3-----|---------|
D|-------------|--3----3---3--|--8----8---8--|----------|----------|----3----|
A|-------------|--------------|--------------|\---1-----|----------|---------|
E|-------------|--------------|--------------|----------|----------|---------|

[outro]
     H.  E   E   H.  E   E   H.  E   E   H.  E   E
G||--3---3---3-|-----------|-3---3---3-|---------------||
D||o-----------|-3---3---3-|-----------|-3---3---3----o|| 6x
A||o-----------|-----------|-----------|--------------o||
E||------------|-----------|-----------|---------------||

[FADE - END}            
Submit corrections

↑ Back to top | Tablatures and chords for acoustic guitar and electric guitar, ukulele, drums are parodies/interpretations of the original songs. You may use it for private study, scholarship, research or language learning purposes only