Home » A » Akon »

Akon - Beautiful Tabs

Artists:  A B C D E F G H I J K L M N O P Q R S T U V W X Y Z # 

Beautiful Tabs

(ver. 1) Click to play this song!
Akon
                [Intro]

e|--11-11-------------------------------------------------------------|
B|-----------13-13-------------11-11-11-------------------------------|
G|-------------------13-13-13------------12---12-12---12---10-10-10---|
D|--------------------------------------------------------------------|
A|--------------------------------------------------------------------|
D|--------------------------------------------------------------------|

e|--11-11-------------------------------------------------------------|
B|-----------13-13-------------11-11-11--------------------11-11-11---|
G|-------------------13-13-13------------12---12-12---12--------------|
D|--------------------------------------------------------------------|
A|--------------------------------------------------------------------|
D|--------------------------------------------------------------------|
            
Submit corrections

↑ Back to top | Tablatures and chords for acoustic guitar and electric guitar, ukulele, drums are parodies/interpretations of the original songs. You may use it for private study, scholarship, research or language learning purposes only