Home » A » Akira Yamaoka »

Akira Yamaoka - The Terminal Show Tabs

Artists:  A B C D E F G H I J K L M N O P Q R S T U V W X Y Z # 

The Terminal Show Tabs

(ver. 1) Click to play this song!
Akira Yamaoka
0:00-0:54
e|-------------------------|[repeat x4]
b|---------4-3-------------|
g|--------5-------3--------|
D|-----5-------------5-----|
A|--3----------------------|
E|-------------------------|

0:00-0:54       [repeat x3]            (End with this bit)
e|----------11-10---------| |----------11-10---------11-8|
b|---------8-------11--8--| |---------8-------11-8-11----|
g|--------8---------------| |--------8-------------------|
D|------------------------| |----------------------------|
A|-----10-----------------| |-----10---------------------|
E|--8---------------------| |--8-------------------------|

:00-0:54                             [repeat x3]        (End with this bit)
e|------------------11-10-----------------11-8-| |------------------11-10-|
b|--------------8-11------------------8-11-----| |--------8-----8-11------|
g|---------8--------------------7--------------| |--------8---------------|
D|--------10--------------------10-------------| |------------------------|
A|-----10--------------------10----------------| |-----10-----------------|
E|--8---------------------8--------------------| |--8---------------------|

bridge
0:00-0:54
e|------------------------------------------------------------------|
b|------------------------------------------------------------------|
g|--5-5-5-5-5-5-5-5-5-5-5-5-5-5-5-5-5-5-5-5-5-5-5-5-5-5-5-5-5-5-5-5-|
D|--5-5-5-5-5-5-5-5-5-5-5-5-5-5-5-5-5-5-5-5-5-5-5-5-5-5-5-5-5-5-5-5-|
A|--3-3-3-3-3-3-3-3-----------------3-3-3-3-3-3-3-3-----------------|
E|------------------6-6-6-6-6-6-6-6-----------------6-6-6-6-5-5-5-5-|            
Submit corrections

↑ Back to top | Tablatures and chords for acoustic guitar and electric guitar, ukulele, drums are parodies/interpretations of the original songs. You may use it for private study, scholarship, research or language learning purposes only