Home » A » Akira Yamaoka »

Akira Yamaoka - Theme Of Laura Tabs

Artists:  A B C D E F G H I J K L M N O P Q R S T U V W X Y Z # 

Theme Of Laura Tabs

(ver. 1) Click to play this song!
Akira Yamaoka
Section 1

[ Gtr. 2 
   CM7       D+11     Em        D+11
[|--0-0-0-0--0-0-0-0--0-0-0-0-0--0--|
[|--0-0-0-0--0-0-0-0--0-0-0-0-0--0--|
[|--0-0-0-0--0-0-0-0--0-0-0-0-0--0--|   x2
[|--2-2-2-2--4-4-4-4--5-5-5h7-5--4--|
[|--3-3-3-3--5-5-5-5--7-7-7-7-7--5--|
[|----------------------------------|

[ Gtr. 2 
[      CM7   D+11  Em   D+11      CM7   D+11  CM7 D+11
[ Gtr. 1
[|-----------------------------|--7--7--5--0--7--7--7--|
[|--0--5--5--7--7--8--7--5-----|-----------------------|
[|-----------------------------|-----------------------|
[|-----------------------------|-----------------------|
[|-----------------------------|-----------------------|
[|-----------------------------|-----------------------|



Section 2

[ Gtr. 2 
[  CM7    D+11   Em        CM7  D+11 Em          CM7    D+11   Em        CM7 D+11   Em
[ Gtr. 1
[|---------------------------------------------|-------------------------------------------|
[|---------------------------------------3-0---|---------------------------------3--5--0---|
[|--------9---4--2-4--0----0--4-2----0---------|--------9---4--2-4--0----0--4-2------------|
[|-----5-----------------4---------2-----------|-----5-----------------4-------------------|
[|--7------------------------------------------|--7----------------------------------------|
[|---------------------------------------------|-------------------------------------------|



Section 3

[ Gtrs. 1 & 2
[   Em2        Emadd9
[|---0-----------2------------------|
[|---0-----------0------------------|
[|---0-----------0------6---5---4---|   x4
[|---2-----------2------x---x---x---|
[|---2-----------2------4---3---2---|
[|---0-----------0------------------|



Section 4

[ Gtr. 2 
[ Asus                          Em2
[ Gtr. 1
[|----------------------------------------------------|
[|--------------8------7----8-7-5------------8--7--5--|
[|---------5---------5-------------4-------4----------|
[|-------7---7-----7------7---------------------------|
[|---------------------------------------7------------|
[|----------------------------------------------------|

[ Gtr. 2 
[ Asus                          Em2
[ Gtr. 1
[|-------------------------------------12---------------------|
[|--------------8------7----8-7-5---10----7-8---7-8-10-8-7-5--|
[|---------5---------5----------------------------------------|
[|-------7---7-----7------7-----------------------------------|
[|------------------------------------------------------------|
[|------------------------------------------------------------|



Section 5

[ Gtr. 2 
[ Asus            C              Asus                C
[ Gtr. 1
[|----------------------------------|--------------------------------|
[|---------5-8-10-5---8--7-8-10--5--|---------5-8-10-5---8--7-8-7-8--|
[|-----5-7--------------------------|-----5-7------------------------|
[|---7------------------------------|---7----------------------------|
[|----------------------------------|--------------------------------|
[|----------------------------------|--------------------------------|

[ Gtr. 2 
[ Asus            C              E
[ Gtr. 1
[|--------------------------------------5--------------12-10---| 
[|---------5-8-10-5---8--7-8--10-12---5---5---5-5--------------|
[|-----5-7----------------------------------5------7-----------|
[|---7---------------------------------------------------------|
[|-------------------------------------------------------------|
[|-------------------------------------------------------------|



Section 6

[ Gtr. 2 
[ Em2         D        Csus     B7                Em2     D      Csus   B7
[ Gtr. 1
[|---------------------------------------------|----------------------------------|
[|---8--8--8--7--7--8--10----------------------|--8-8-7-8----8-7-5--7-5-4--2-4-5--|
[|---x--x--x--x--x--x--x---9----4--4--11-8--9--|----------7-----------------------|   x3
[|---5--5--5--4--4--5--7---x----x--x--x--x--x--|----------------------------------|
[|-------------------------7----2--2--9--6--7--|----------------------------------|
[|---------------------------------------------|----------------------------------|

[ Gtr. 2 
[ Em2         D        Csus     B7                Em2     D      Csus   B7     Em2
[ Gtr. 1
[|---------------------------------------------|----------------------------------|
[|---8--8--8--7--7--8--10----------------------|--8-8-7-8----8-7-5--7-5-4--2-4-5--|
[|---x--x--x--x--x--x--x---9----4--4--11-8--9--|----------7-----------------------|  
[|---5--5--5--4--4--5--7---x----x--x--x--x--x--|----------------------------------|
[|-------------------------7----2--2--9--6--7--|----------------------------------|
[|---------------------------------------------|----------------------------------|

[ Gtr. 1
[|------------------------------|
[|---10-5---7-8-10---8-7-5--0---|
[|------------------------------|
[|------------------------------|
[|------------------------------|
[|------------------------------|



Section 7

[ Gtr. 2 
[  CM7       D+11     Em            D+11
[|--0-0-0-0--0-0-0-0--0-0-0-0-0-0-0--0--|
[|--0-0-0-0--0-0-0-0--0-0-0-0-0-0-0--0--|
[|--0-0-0-0--0-0-0-0--0-0-0-0-0-0-0--0--|   x2
[|--2-2-2-2--4-4-4-4--5-5-5-5-5h7-5--4--|
[|--3-3-3-3--5-5-5-5--7-7-7-7-7-7-7--5--|
[|--------------------------------------|

[ Gtr. 2 
[      CM7      D+11    Em         CM7     D+11     Em
[ Gtr. 1
[|--------------------------|-----------------------------------|
[|--5-7-8---7-5-3---5-7-5---|--5-7-8---7-8-10---8-7-5---7-8-7---|
[|--------------------------|-----------------------------------|
[|--------------------------|-----------------------------------|
[|--------------------------|-----------------------------------|
[|--------------------------|-----------------------------------|

[ Gtr. 2 
[  CM7    D+11   Em        CM7  D+11 Em          CM7    D+11   Em        CM7 D+11   Em
[ Gtr. 1
[|---------------------------------------------|-------------------------------------------|
[|---------------------------------------3-0---|---------------------------------3--5--0---|
[|--------9---4--2-4--0----0--4-2----0---------|--------9---4--2-4--0----0--4-2------------|
[|-----5-----------------4---------2-----------|-----5-----------------4-------------------|
[|--7------------------------------------------|--7----------------------------------------|
[|---------------------------------------------|-------------------------------------------|



Section 8

[ Gtrs. 1 & 2
[   Em2        Emadd9
[|---0-----------2------------------|
[|---0-----------0------------------|
[|---0-----------0------6---5---4---|   x3
[|---2-----------2------x---x---x---|
[|---2-----------2------4---3---2---|
[|---0-----------0------------------|

[ Gtrs. 1 & 2
[   Em2        Emadd9
[|---0-----------2-------------|
[|---0-----------0-------------|
[|---0-----------0-------------|
[|---2-----------2-------------|
[|---2-----------2-------------|
[|---0-----------0-------------|            
Submit corrections

↑ Back to top | Tablatures and chords for acoustic guitar and electric guitar, ukulele, drums are parodies/interpretations of the original songs. You may use it for private study, scholarship, research or language learning purposes only